  0
SECTION
  2
HEADER
  9
$ACADVER
  1
AC1009
  9
$INSBASE
 10
0.0
 20
0.0
 30
0.0
  9
$EXTMIN
 10
-800.05492731241839
 20
-1203.8303142880629
 30
-0.0015258207003583
  9
$EXTMAX
 10
1000.050435694302
 20
1471.861404756477
 30
0.0000000349246037
  9
$LIMMIN
 10
0.0
 20
0.0
  9
$LIMMAX
 10
0.0
 20
0.0
  9
$ORTHOMODE
 70
     0
  9
$REGENMODE
 70
     1
  9
$FILLMODE
 70
     1
  9
$QTEXTMODE
 70
     0
  9
$MIRRTEXT
 70
     1
  9
$DRAGMODE
 70
     2
  9
$LTSCALE
 40
50.799999999999997
  9
$OSMODE
 70
   167
  9
$ATTMODE
 70
     1
  9
$TEXTSIZE
 40
0.0
  9
$TRACEWID
 40
1.0
  9
$TEXTSTYLE
  7
STANDARD
  9
$CLAYER
  8
0
  9
$CELTYPE
  6
CONTINUOUS
  9
$CECOLOR
 62
   256
  9
$DIMSCALE
 40
1.0
  9
$DIMASZ
 40
0.18
  9
$DIMEXO
 40
0.0625
  9
$DIMDLI
 40
0.38
  9
$DIMRND
 40
0.0
  9
$DIMDLE
 40
0.0
  9
$DIMEXE
 40
0.18
  9
$DIMTP
 40
0.0
  9
$DIMTM
 40
0.0
  9
$DIMTXT
 40
0.18
  9
$DIMCEN
 40
0.09
  9
$DIMTSZ
 40
0.0
  9
$DIMTOL
 70
     0
  9
$DIMLIM
 70
     0
  9
$DIMTIH
 70
     1
  9
$DIMTOH
 70
     1
  9
$DIMSE1
 70
     0
  9
$DIMSE2
 70
     0
  9
$DIMTAD
 70
     0
  9
$DIMZIN
 70
     0
  9
$DIMBLK
  1

  9
$DIMASO
 70
     1
  9
$DIMSHO
 70
     1
  9
$DIMPOST
  1

  9
$DIMAPOST
  1

  9
$DIMALT
 70
     0
  9
$DIMALTD
 70
     2
  9
$DIMALTF
 40
25.399999999999999
  9
$DIMLFAC
 40
1.0
  9
$DIMTOFL
 70
     0
  9
$DIMTVP
 40
0.0
  9
$DIMTIX
 70
     0
  9
$DIMSOXD
 70
     0
  9
$DIMSAH
 70
     0
  9
$DIMBLK1
  1

  9
$DIMBLK2
  1

  9
$DIMSTYLE
  2
STANDARD
  9
$DIMCLRD
 70
     0
  9
$DIMCLRE
 70
     0
  9
$DIMCLRT
 70
     0
  9
$DIMTFAC
 40
1.0
  9
$DIMGAP
 40
0.09
  9
$LUNITS
 70
     2
  9
$LUPREC
 70
     4
  9
$SKETCHINC
 40
0.1
  9
$FILLETRAD
 40
0.0
  9
$AUNITS
 70
     0
  9
$AUPREC
 70
     0
  9
$MENU
  1
acad
  9
$ELEVATION
 40
0.0
  9
$PELEVATION
 40
0.0
  9
$THICKNESS
 40
0.0
  9
$LIMCHECK
 70
     0
  9
$BLIPMODE
 70
     0
  9
$CHAMFERA
 40
0.0
  9
$CHAMFERB
 40
0.0
  9
$SKPOLY
 70
     0
  9
$TDCREATE
 40
2452516.6242824071
  9
$TDUPDATE
 40
2452516.6528644669
  9
$TDINDWG
 40
0.0004634259
  9
$TDUSRTIMER
 40
0.0004634259
  9
$USRTIMER
 70
     1
  9
$ANGBASE
 50
0.0
  9
$ANGDIR
 70
     0
  9
$PDMODE
 70
     1
  9
$PDSIZE
 40
-2.0
  9
$PLINEWID
 40
0.0
  9
$COORDS
 70
     0
  9
$SPLFRAME
 70
     0
  9
$SPLINETYPE
 70
     6
  9
$SPLINESEGS
 70
     8
  9
$ATTDIA
 70
     0
  9
$ATTREQ
 70
     1
  9
$HANDLING
 70
 22529
  9
$HANDSEED
  5
9C6
  9
$SURFTAB1
 70
     6
  9
$SURFTAB2
 70
     6
  9
$SURFTYPE
 70
     6
  9
$SURFU
 70
     6
  9
$SURFV
 70
     6
  9
$UCSNAME
  2

  9
$UCSORG
 10
0.0
 20
0.0
 30
0.0
  9
$UCSXDIR
 10
1.0
 20
0.0
 30
0.0
  9
$UCSYDIR
 10
0.0
 20
1.0
 30
0.0
  9
$PUCSNAME
  2

  9
$PUCSORG
 10
0.0
 20
0.0
 30
0.0
  9
$PUCSXDIR
 10
1.0
 20
0.0
 30
0.0
  9
$PUCSYDIR
 10
0.0
 20
1.0
 30
0.0
  9
$USERI1
 70
     0
  9
$USERI2
 70
     0
  9
$USERI3
 70
     0
  9
$USERI4
 70
     0
  9
$USERI5
 70
     0
  9
$USERR1
 40
0.0
  9
$USERR2
 40
0.0
  9
$USERR3
 40
0.0
  9
$USERR4
 40
0.0
  9
$USERR5
 40
0.0
  9
$WORLDVIEW
 70
     1
  9
$SHADEDGE
 70
     3
  9
$SHADEDIF
 70
    70
  9
$TILEMODE
 70
     1
  9
$MAXACTVP
 70
    16
  9
$PLIMCHECK
 70
     0
  9
$PEXTMIN
 10
1.0000000000000000E+020
 20
1.0000000000000000E+020
 30
1.0000000000000000E+020
  9
$PEXTMAX
 10
-1.0000000000000000E+020
 20
-1.0000000000000000E+020
 30
-1.0000000000000000E+020
  9
$PLIMMIN
 10
0.0
 20
0.0
  9
$PLIMMAX
 10
12.0
 20
9.0
  9
$UNITMODE
 70
     0
  9
$VISRETAIN
 70
     0
  9
$PLINEGEN
 70
     1
  9
$PSLTSCALE
 70
     0
  0
ENDSEC
  0
SECTION
  2
TABLES
  0
TABLE
  2
VPORT
 70
     2
  0
VPORT
  2
*ACTIVE
 70
     0
 10
0.0
 20
0.0
 11
1.0
 21
1.0
 12
99.997756486038284
 22
134.01554212313701
 13
0.0
 23
0.0
 14
1.0
 24
1.0
 15
0.0
 25
0.0
 16
0.0
 26
0.0
 36
1.0
 17
0.0
 27
0.0
 37
0.0
 40
2894.099230062649
 41
1.664912280701754
 42
50.0
 43
0.0
 44
0.0
 50
0.0
 51
0.0
 71
     0
 72
   100
 73
     1
 74
     1
 75
     0
 76
     0
 77
     0
 78
     0
  0
ENDTAB
  0
TABLE
  2
LTYPE
 70
    13
  0
LTYPE
  2
CONTINUOUS
 70
     0
  3
Solid line
 72
    65
 73
     0
 40
0.0
  0
LTYPE
  2
STYLE_01
 70
     0
  3

 72
    65
 73
     2
 40
0.4166412353515625
 49
0.208282470703125
 49
-0.2083587646484375
  0
LTYPE
  2
STYLE_02
 70
     0
  3

 72
    65
 73
     2
 40
0.694427490234375
 49
0.4860687255859375
 49
-0.2083587646484375
  0
LTYPE
  2
STYLE_03
 70
     0
  3

 72
    65
 73
     2
 40
1.25
 49
1.0416412353515621
 49
-0.2083587646484375
  0
LTYPE
  2
STYLE_04
 70
     0
  3

 72
    65
 73
     2
 40
1.5277099609375
 49
1.319427490234375
 49
-0.208282470703125
  0
LTYPE
  2
STYLE_05
 70
     0
  3

 72
    65
 73
     2
 40
0.208282470703125
 49
0.069427490234375
 49
-0.13885498046875
  0
LTYPE
  2
STYLE_06
 70
     0
  3

 72
    65
 73
     4
 40
1.0416412353515621
 49
0.625
 49
-0.208282470703125
 49
0.069427490234375
 49
-0.1389312744140625
  0
LTYPE
  2
STYLE_07
 70
     0
  3

 72
    65
 73
     6
 40
1.875
 49
0.625
 49
-0.208282470703125
 49
0.625
 49
-0.2083587646484375
 49
0.069427490234375
 49
-0.1389312744140625
  0
LTYPE
  2
STYLE_08
 70
     0
  3

 72
    65
 73
     6
 40
1.25
 49
0.625
 49
-0.208282470703125
 49
0.069427490234375
 49
-0.1389312744140625
 49
0.069427490234375
 49
-0.1389312744140625
  0
LTYPE
  2
STYLE_09
 70
     0
  3

 72
    65
 73
     4
 40
5.0
 49
3.75
 49
-0.2777862548828125
 49
0.694427490234375
 49
-0.2777862548828125
  0
LTYPE
  2
STYLE_10
 70
     0
  3

 72
    65
 73
     6
 40
5.9375
 49
3.75
 49
-0.2777862548828125
 49
0.694427490234375
 49
-0.2777862548828125
 49
0.625
 49
-0.3125
  0
LTYPE
  2
STYLE_11
 70
     0
  3

 72
    65
 73
     4
 40
0.7500000000000001
 49
0.3750000000000001
 49
-0.1875
 49
0.0005
 49
-0.187
  0
LTYPE
  2
STYLE_12
 70
     0
  3

 72
    65
 73
     2
 40
0.2812500000000001
 49
0.1875
 49
-0.09375
  0
ENDTAB
  0
TABLE
  2
LAYER
 70
    10
  0
LAYER
  2
0
 70
     0
 62
     7
  6
CONTINUOUS
  0
LAYER
  2
HIBINO-BASE
 70
     0
 62
     7
  6
CONTINUOUS
  0
LAYER
  2
SIDE-DOWN-18_5
 70
     0
 62
     7
  6
CONTINUOUS
  0
LAYER
  2
SIED-UP18_5
 70
     0
 62
     7
  6
CONTINUOUS
  0
LAYER
  2
TOP22
 70
     0
 62
     7
  6
CONTINUOUS
  0
LAYER
  2
BRACKET
 70
     0
 62
     7
  6
CONTINUOUS
  0
LAYER
  2
PATTERN_FILL
 70
     0
 62
     7
  6
CONTINUOUS
  0
LAYER
  2
SPEC
 70
     0
 62
     7
  6
CONTINUOUS
  0
LAYER
  2
DIMNSIONS
 70
     0
 62
     7
  6
CONTINUOUS
  0
LAYER
  2
DATA
 70
     0
 62
     7
  6
CONTINUOUS
  0
ENDTAB
  0
TABLE
  2
STYLE
 70
     2
  0
STYLE
  2
STANDARD
 70
     0
 40
0.0
 41
1.0
 50
0.0
 71
     0
 42
0.0
  3
txt
  4
BIGFONT.SHX
  0
ENDTAB
  0
TABLE
  2
VIEW
 70
     0
  0
ENDTAB
  0
TABLE
  2
UCS
 70
     0
  0
ENDTAB
  0
TABLE
  2
APPID
 70
     1
  0
APPID
  2
ACAD
 70
     0
  0
ENDTAB
  0
TABLE
  2
DIMSTYLE
 70
     1
  0
DIMSTYLE
  2
STANDARD
 70
     0
  3

  4

  5

  6

  7

 40
1.0
 41
0.18
 42
0.0625
 43
0.38
 44
0.18
 45
0.0
 46
0.0
 47
0.0
 48
0.0
140
0.18
141
0.09
142
0.0
143
25.399999999999999
144
1.0
145
0.0
146
1.0
147
0.09
 71
     0
 72
     0
 73
     1
 74
     1
 75
     0
 76
     0
 77
     0
 78
     0
170
     0
171
     2
172
     0
173
     0
174
     0
175
     0
176
     0
177
     0
178
     0
  0
ENDTAB
  0
ENDSEC
  0
SECTION
  2
BLOCKS
  0
BLOCK
  8
0
  2
$MODEL_SPACE
 70
     0
 10
0.0
 20
0.0
 30
0.0
  3
$MODEL_SPACE
  1

  0
ENDBLK
  5
4F5
  8
0
  0
BLOCK
 67
     1
  8
0
  2
$PAPER_SPACE
 70
     0
 10
0.0
 20
0.0
 30
0.0
  3
$PAPER_SPACE
  1

  0
ENDBLK
  5
4F1
 67
     1
  8
0
  0
BLOCK
  8
PATTERN_FILL
  2
*U0
 70
     1
 10
0.0
 20
0.0
 30
0.0
  3
*U0
  1

  0
LINE
  5
514
  8
PATTERN_FILL
  6
CONTINUOUS
 62
     7
 10
333.4007532643854
 20
396.82069833654248
 30
0.0
 11
336.82019833654277
 21
393.40125326438522
 31
0.0
  0
LINE
  5
515
  8
PATTERN_FILL
  6
CONTINUOUS
 62
     7
 10
332.36091787439381
 20
396.44632016416102
 30
0.0
 11
336.4458201641612
 21
392.36141787439362
 31
0.0
  0
LINE
  5
516
  8
PATTERN_FILL
  6
CONTINUOUS
 62
     7
 10
331.36091787439381
 20
396.03210660178797
 30
0.0
 11
336.0316066017881
 21
391.36141787439362
 31
0.0
  0
LINE
  5
517
  8
PATTERN_FILL
  6
CONTINUOUS
 62
     7
 10
330.64556091380859
 20
395.33325000000002
 30
0.0
 11
335.33275000000009
 21
390.64606091380853
 31
0.0
  0
LINE
  5
518
  8
PATTERN_FILL
  6
CONTINUOUS
 62
     7
 10
330.23134735143549
 20
394.33325000000002
 30
0.0
 11
334.33274999999998
 21
390.23184735143542
 31
0.0
  0
LINE
  5
519
  8
PATTERN_FILL
  6
CONTINUOUS
 62
     7
 10
329.81713378906147
 20
393.33325000000082
 30
0.0
 11
333.33275000000009
 21
389.81763378906231
 31
0.0
  0
LINE
  5
51A
  8
PATTERN_FILL
  6
CONTINUOUS
 62
     7
 10
330.81713378906159
 20
390.91903643762771
 30
0.0
 11
330.91853643762801
 21
390.81763378906129
 31
0.0
  0
ENDBLK
  5
51B
  8
PATTERN_FILL
  0
BLOCK
  8
PATTERN_FILL
  2
*U1
 70
     1
 10
0.0
 20
0.0
 30
0.0
  3
*U1
  1

  0
LINE
  5
51E
  8
PATTERN_FILL
  6
CONTINUOUS
 62
     7
 10
349.0172190297356
 20
190.22495611231111
 30
0.0
 11
346.89080662421679
 21
192.3510495958339
 31
0.0
  0
LINE
  5
51F
  8
PATTERN_FILL
  6
CONTINUOUS
 62
     7
 10
350.59264476718488
 20
190.0638741727762
 30
0.0
 11
346.72932946316138
 21
193.9266100519317
 31
0.0
  0
LINE
  5
520
  8
PATTERN_FILL
  6
CONTINUOUS
 62
     7
 10
351.59267583542601
 20
190.4781006040362
 30
0.0
 11
347.14353015977679
 21
194.9265789912447
 31
0.0
  0
LINE
  5
521
  8
PATTERN_FILL
  6
CONTINUOUS
 62
     7
 10
352.52978139667988
 20
190.95524310463739
 30
0.0
 11
347.62034744561328
 21
195.86394073265089
 31
0.0
  0
LINE
  5
522
  8
PATTERN_FILL
  6
CONTINUOUS
 62
     7
 10
352.94398209329529
 20
191.95521204395061
 30
0.0
 11
348.62037851385469
 21
196.27816716391101
 31
0.0
  0
LINE
  5
523
  8
PATTERN_FILL
  6
CONTINUOUS
 62
     7
 10
353.35818278991059
 20
192.95518098326369
 30
0.0
 11
349.62040958209599
 21
196.6923935951709
 31
0.0
  0
LINE
  5
524
  8
PATTERN_FILL
  6
CONTINUOUS
 62
     7
 10
352.89368447681528
 20
194.83371714390921
 30
0.0
 11
351.49898505341872
 21
196.2282073885396
 31
0.0
  0
ENDBLK
  5
525
  8
PATTERN_FILL
  0
ENDSEC
  0
SECTION
  2
ENTITIES
  0
POLYLINE
  5
526
  8
HIBINO-BASE
  6
CONTINUOUS
 62
     7
 66
     1
 10
0.0
 20
0.0
 30
0.0
  0
VERTEX
  5
9BB
  8
HIBINO-BASE
  6
CONTINUOUS
 62
     7
 10
-800.0
 20
1471.7798349999989
 30
0.0
  0
VERTEX
  5
9BC
  8
HIBINO-BASE
  6
CONTINUOUS
 62
     7
 10
999.99550000000011
 20
1471.7798349999989
 30
0.0
  0
VERTEX
  5
9BD
  8
HIBINO-BASE
  6
CONTINUOUS
 62
     7
 10
999.99550000000011
 20
-1128.213665
 30
0.0
  0
VERTEX
  5
9BE
  8
HIBINO-BASE
  6
CONTINUOUS
 62
     7
 10
-800.0
 20
-1128.213665
 30
0.0
  0
VERTEX
  5
9BF
  8
HIBINO-BASE
  6
CONTINUOUS
 62
     7
 10
-800.0
 20
1471.7798349999989
 30
0.0
  0
SEQEND
  5
9C0
  8
HIBINO-BASE
  6
CONTINUOUS
 62
     7
  0
TEXT
  5
52D
  8
HIBINO-BASE
 62
     7
 10
-728.16017960000011
 20
-1192.300304783
 30
0.0
 40
34.37491406249999
  1
Hibino Corporation
 41
0.8
 11
-728.16017960000011
 21
-1157.9253907205
 31
0.0
 73
     3
  0
TEXT
  5
52E
  8
HIBINO-BASE
 62
     7
 10
587.49653124999975
 20
-1103.2137275
 30
0.0
 40
21.4843212890625
  1
N.Sasaki
 41
0.8
 11
587.49653124999975
 21
-1081.729406210937
 31
0.0
 73
     3
  0
LINE
  5
52F
  8
HIBINO-BASE
  6
CONTINUOUS
 62
     7
 10
99.997750000000195
 20
-1028.2139149999989
 30
0.0
 11
999.99550000000011
 21
-1028.2139149999989
 31
0.0
  0
TEXT
  5
530
  8
HIBINO-BASE
 62
     7
 10
579.99654999999984
 20
-1053.2138525
 30
0.0
 40
21.4843212890625
  1
DRAWN
 41
0.8
 11
579.99654999999984
 21
-1031.729531210937
 31
0.0
 73
     3
  0
LINE
  5
531
  8
HIBINO-BASE
  6
CONTINUOUS
 62
     7
 10
99.997750000000195
 20
-903.21422749999988
 30
0.0
 11
999.99550000000011
 21
-903.21422749999988
 31
0.0
  0
TEXT
  5
532
  8
HIBINO-BASE
 62
     7
 10
329.99717500000031
 20
-1053.2138525
 30
0.0
 40
21.4843212890625
  1
DATE
 41
0.8
 11
329.99717500000031
 21
-1031.729531210937
 31
0.0
 73
     3
  0
TEXT
  5
533
  8
HIBINO-BASE
 62
     7
 10
337.49715624999988
 20
-1103.2137275
 30
0.0
 40
21.4843212890625
  1
'99.10.
 41
0.8
 11
337.49715624999988
 21
-1081.729406210937
 31
0.0
 73
     3
  0
LINE
  5
534
  8
HIBINO-BASE
  6
CONTINUOUS
 62
     7
 10
99.997750000000195
 20
-1128.213665
 30
0.0
 11
99.997750000000195
 21
-903.21422749999988
 31
0.0
  0
TEXT
  5
535
  8
HIBINO-BASE
 62
     7
 10
229.99742499999991
 20
-1053.2138525
 30
0.0
 40
21.4843212890625
  1
SCALE
 41
0.8
 11
229.99742499999991
 21
-1031.729531210937
 31
0.0
 73
     3
  0
TEXT
  5
536
  8
HIBINO-BASE
 62
     7
 10
104.9977374999999
 20
-1053.2138524999989
 30
0.0
 40
19.335889160156238
  1
図面サイズ
 41
0.8
 11
104.9977374999999
 21
-1033.8779633398431
 31
0.0
 73
     3
  0
LINE
  5
537
  8
HIBINO-BASE
  6
CONTINUOUS
 62
     7
 10
224.9974375000001
 20
-1128.213665
 30
0.0
 11
224.9974375000001
 21
-1028.2139149999989
 31
0.0
  0
TEXT
  5
538
  8
HIBINO-BASE
 62
     7
 10
137.49765624999969
 20
-1115.7136962500001
 30
0.0
 40
34.37491406249999
  1
A4
 41
0.8
 11
137.49765624999969
 21
-1081.3387821875001
 31
0.0
 73
     3
  0
LINE
  5
539
  8
HIBINO-BASE
  6
CONTINUOUS
 62
     7
 10
324.9971875
 20
-1128.213665
 30
0.0
 11
324.9971875
 21
-1028.2139149999989
 31
0.0
  0
LINE
  5
53A
  8
HIBINO-BASE
  6
CONTINUOUS
 62
     7
 10
243.74739062500009
 20
-1115.7136962500001
 30
0.0
 11
281.24729687499979
 21
-1078.2137899999991
 31
0.0
  0
TEXT
  5
53B
  8
HIBINO-BASE
 62
     7
 10
237.49740625000001
 20
-1096.9637431249989
 30
0.0
 40
25.781185546875001
  1
1
 41
0.8
 11
237.49740625000001
 21
-1071.182557578124
 31
0.0
 73
     3
  0
TEXT
  5
53C
  8
HIBINO-BASE
 62
     7
 10
274.99731250000008
 20
-1115.7136962500001
 30
0.0
 40
25.781185546875001
  1
10
 41
0.8
 11
274.99731250000008
 21
-1089.932510703125
 31
0.0
 73
     3
  0
TEXT
  5
53D
  8
HIBINO-BASE
 62
     7
 10
104.9977374999999
 20
-928.21416500000009
 30
0.0
 40
21.4843212890625
  1
NOTE
 41
0.8
 11
104.9977374999999
 21
-906.72984371093764
 31
0.0
 73
     3
  0
LINE
  5
53E
  8
HIBINO-BASE
  6
CONTINUOUS
 62
     7
 10
449.99687500000022
 20
-1128.213665
 30
0.0
 11
449.99687500000022
 21
-903.21422749999988
 31
0.0
  0
TEXT
  5
53F
  8
HIBINO-BASE
 62
     7
 10
454.99686250000002
 20
-1053.2138525
 30
0.0
 40
21.4843212890625
  1
DESIGN
 41
0.8
 11
454.99686250000002
 21
-1031.729531210937
 31
0.0
 73
     3
  0
LINE
  5
540
  8
HIBINO-BASE
  6
CONTINUOUS
 62
     7
 10
574.99656249999987
 20
-1028.2139149999989
 30
0.0
 11
574.99656250000055
 21
-1128.213665
 31
0.0
  0
TEXT
  5
541
  8
HIBINO-BASE
 62
     7
 10
454.99686250000002
 20
-928.21416500000009
 30
0.0
 40
21.4843212890625
  1
TITLE
 41
0.8
 11
454.99686250000002
 21
-906.72984371093764
 31
0.0
 73
     3
  0
TEXT
  5
542
  8
HIBINO-BASE
 62
     7
 10
829.99592500000017
 20
-1053.2138525
 30
0.0
 40
21.4843212890625
  1
DRAWING NO.
 41
0.8
 11
829.99592500000017
 21
-1031.729531210937
 31
0.0
 73
     3
  0
TEXT
  5
543
  8
HIBINO-BASE
 62
     7
 10
687.29654458573748
 20
-1192.300304783
 30
0.0
 40
34.37491406249999
  1
ヒビノ株式会社
 41
0.8
 11
687.29654458573748
 21
-1157.9253907205
 31
0.0
 73
     3
  0
TEXT
  5
544
  8
HIBINO-BASE
 62
     7
 10
704.99623750000046
 20
-1053.2138525
 30
0.0
 40
21.4843212890625
  1
CHECK
 41
0.8
 11
704.99623750000046
 21
-1031.729531210937
 31
0.0
 73
     3
  0
LINE
  5
545
  8
HIBINO-BASE
  6
CONTINUOUS
 62
     7
 10
824.99593749999985
 20
-1028.2139149999989
 30
0.0
 11
824.99593750000031
 21
-1128.213665
 31
0.0
  0
LINE
  5
546
  8
HIBINO-BASE
  6
CONTINUOUS
 62
     7
 10
699.99625000000015
 20
-1128.213665
 30
0.0
 11
699.99625000000015
 21
-1028.2139149999989
 31
0.0
  0
TEXT
  5
547
  8
SIDE-DOWN-18_5
 62
     7
 10
-174.4898469096342
 20
-802.30473192262195
 30
0.0
 40
21.484375
  1
注1
 50
90.0
 41
0.8
 11
-195.9742219096342
 21
-802.30473192262195
 31
0.0
 73
     3
  0
ARC
  5
548
  8
SIDE-DOWN-18_5
  6
STYLE_12
 62
     7
 10
-75.666087448993622
 20
-547.18368048245441
 30
0.0
 40
1.5699999999999621
 50
103.5000021781081
 51
198.4999999999969
  0
ARC
  5
549
  8
SIDE-DOWN-18_5
  6
STYLE_12
 62
     7
 10
-76.674413106284319
 20
-551.43850467046161
 30
0.0
 40
1.5700000000000229
 50
103.4999647536653
 51
198.5000000000008
  0
LINE
  5
54A
  8
SIDE-DOWN-18_5
  6
STYLE_12
 62
     7
 10
-77.040921388414986
 20
-549.91188366997426
 30
0.0
 11
-72.8988371786984
 21
-548.91745992782819
 31
0.0
  0
LINE
  5
54B
  8
SIDE-DOWN-18_5
  6
STYLE_12
 62
     7
 10
-76.455798683912263
 20
-549.77140851786123
 30
0.0
 11
-77.154955587667146
 21
-547.6818487930102
 31
0.0
  0
LINE
  5
54C
  8
SIDE-DOWN-18_5
  6
STYLE_12
 62
     7
 10
-78.163281244958071
 20
-551.93667298101786
 30
0.0
 11
-56.250000000000142
 21
-617.42856712217963
 31
0.0
  0
LINE
  5
54D
  8
SIDE-DOWN-18_5
  6
STYLE_12
 62
     7
 10
-72.8988371786984
 20
-548.91745992782819
 30
0.0
 11
-56.250000000000142
 21
-598.67558925095796
 31
0.0
  0
LINE
  5
54E
  8
SIDE-DOWN-18_5
  6
STYLE_12
 62
     7
 10
-67.141180534649962
 20
-543.52241919764003
 30
0.0
 11
-56.250000000000142
 21
-576.07272668806615
 31
0.0
  0
LINE
  5
54F
  8
SIDE-DOWN-18_5
  6
STYLE_12
 62
     7
 10
-76.032596728282002
 20
-545.65705972136277
 30
0.0
 11
-56.250000000000021
 21
-540.90767765206965
 31
0.0
  0
LINE
  5
550
  8
SIDE-DOWN-18_5
  6
STYLE_12
 62
     7
 10
-15.509255658729449
 20
-726.54225907089358
 30
0.0
 11
82.265386123774533
 21
-684.02863928613681
 31
0.0
  0
ARC
  5
551
  8
SIDE-DOWN-18_5
  6
STYLE_12
 62
     7
 10
-19.475169185943859
 20
-722.38902485544565
 30
0.0
 40
1.5700000000000269
 50
198.5000000000008
 51
293.50003524633541
  0
ARC
  5
552
  8
SIDE-DOWN-18_5
  6
STYLE_12
 62
     7
 10
-16.13529164220871
 20
-725.10247473030995
 30
0.0
 40
1.5700000000000269
 50
198.5000000000008
 51
293.49999782189229
  0
LINE
  5
553
  8
SIDE-DOWN-18_5
  6
STYLE_12
 62
     7
 10
-18.849132262026849
 20
-723.82880878711535
 30
0.0
 11
-14.94265757913878
 21
-722.13022239505892
 31
0.0
  0
LINE
  5
554
  8
SIDE-DOWN-18_5
  6
STYLE_12
 62
     7
 10
-17.624159780882351
 20
-725.60064304086598
 30
0.0
 11
-18.297292435554841
 21
-723.58886159791518
 31
0.0
  0
ARC
  5
555
  8
SIDE-DOWN-18_5
  6
STYLE_12
 62
     7
 10
81.639350140295264
 20
-682.58885494555329
 30
0.0
 40
1.5700000000000189
 50
293.49999782189229
 51
18.500000000000849
  0
LINE
  5
556
  8
SIDE-DOWN-18_5
  6
STYLE_12
 62
     7
 10
-20.256105665177191
 20
-706.25
 30
0.0
 11
-14.942657579138441
 21
-722.13022239505892
 31
0.0
  0
LINE
  5
557
  8
SIDE-DOWN-18_5
  6
STYLE_12
 62
     7
 10
-26.53076428761371
 20
-706.25
 30
0.0
 11
-20.964037324617731
 21
-722.88719316600191
 31
0.0
  0
LINE
  5
558
  8
SIDE-DOWN-18_5
  6
STYLE_12
 62
     7
 10
-12.693293644284839
 20
-706.25
 30
0.0
 11
-7.1235962156797683
 21
-722.89607095189945
 31
0.0
  0
LINE
  5
559
  8
SIDE-DOWN-18_5
  6
STYLE_12
 62
     7
 10
9.2696734781381895
 20
-706.25
 30
0.0
 11
12.04989333834326
 21
-714.55920128931382
 31
0.0
  0
LINE
  5
55A
  8
SIDE-DOWN-18_5
  6
STYLE_12
 62
     7
 10
68.749999999999872
 20
-639.11872187360746
 30
0.0
 11
83.128218278969143
 21
-682.09068663499727
 31
0.0
  0
TEXT
  5
55B
  8
SIDE-DOWN-18_5
 62
     7
 10
-20.1416015625
 20
-343.27108500000003
 30
0.0
 40
21.484375
  1
注1
 41
0.8
 11
-20.1416015625
 21
-321.78671000000003
 31
0.0
 73
     3
  0
LINE
  5
55C
  8
SIDE-DOWN-18_5
  6
CONTINUOUS
 62
     7
 10
-26.13529164220871
 20
-726.67247473031682
 30
0.0
 11
-145.0
 21
-726.67247473031682
 31
0.0
  0
LINE
  5
55D
  8
SIDE-DOWN-18_5
  6
CONTINUOUS
 62
     7
 10
-56.12370540000007
 20
-700.00000000000648
 30
0.0
 11
-145.0
 21
-700.00000000000648
 31
0.0
  0
LINE
  5
55E
  8
SIDE-DOWN-18_5
  6
CONTINUOUS
 62
     7
 10
-125.0
 20
-700.00000000000648
 30
0.0
 11
-125.0
 21
-726.67247473031682
 31
0.0
  0
LINE
  5
55F
  8
SIDE-DOWN-18_5
 62
     7
 10
-125.0
 20
-726.67247473031682
 30
0.0
 11
-118.2996020484976
 21
-751.67870031625432
 31
0.0
  0
LINE
  5
560
  8
SIDE-DOWN-18_5
 62
     7
 10
-125.0
 20
-726.67247473031682
 30
0.0
 11
-131.7003979515024
 21
-751.67870031625432
 31
0.0
  0
LINE
  5
561
  8
SIDE-DOWN-18_5
  6
CONTINUOUS
 62
     7
 10
-125.0
 20
-726.67247473031682
 30
0.0
 11
-125.0
 21
-782.06448777777791
 31
0.0
  0
LINE
  5
562
  8
SIDE-DOWN-18_5
 62
     7
 10
-125.0
 20
-700.00000000000648
 30
0.0
 11
-131.7003979515024
 21
-674.99377441406887
 31
0.0
  0
LINE
  5
563
  8
SIDE-DOWN-18_5
 62
     7
 10
-125.0
 20
-700.00000000000648
 30
0.0
 11
-118.2996020484976
 21
-674.99377441406887
 31
0.0
  0
LINE
  5
564
  8
SIDE-DOWN-18_5
  6
CONTINUOUS
 62
     7
 10
-125.0
 20
-700.00000000000648
 30
0.0
 11
-125.0
 21
-650.00000000000637
 31
0.0
  0
TEXT
  5
565
  8
SIDE-DOWN-18_5
 62
     7
 10
-137.05555555555549
 20
-782.06448777777791
 30
0.0
 40
28.222222222222221
  1
27
 50
90.0
 41
0.8
 11
-165.27777777777769
 21
-782.06448777777791
 31
0.0
 73
     3
  0
LINE
  5
566
  8
SIDE-DOWN-18_5
  6
CONTINUOUS
 62
     7
 10
-78.244413106282749
 20
-541.43850467046173
 30
0.0
 11
-78.244413106282749
 21
-376.78671000000008
 31
0.0
  0
LINE
  5
567
  8
SIDE-DOWN-18_5
  6
CONTINUOUS
 62
     7
 10
-50.000000000000021
 20
-504.531004
 30
0.0
 11
-50.000000000000021
 21
-376.78671000000008
 31
0.0
  0
LINE
  5
568
  8
SIDE-DOWN-18_5
  6
CONTINUOUS
 62
     7
 10
-50.000000000000021
 20
-396.78671000000003
 30
0.0
 11
-78.244413106282749
 21
-396.78671000000003
 31
0.0
  0
LINE
  5
569
  8
SIDE-DOWN-18_5
 62
     7
 10
-78.244413106282749
 20
-396.78671000000003
 30
0.0
 11
-103.25063869222021
 21
-403.48710795150248
 31
0.0
  0
LINE
  5
56A
  8
SIDE-DOWN-18_5
 62
     7
 10
-78.244413106282749
 20
-396.78671000000003
 30
0.0
 11
-103.25063869222021
 21
-390.08631204849758
 31
0.0
  0
LINE
  5
56B
  8
SIDE-DOWN-18_5
  6
CONTINUOUS
 62
     7
 10
-78.244413106282749
 20
-396.78671000000003
 30
0.0
 11
-128.24441310628271
 21
-396.78671000000003
 31
0.0
  0
LINE
  5
56C
  8
SIDE-DOWN-18_5
 62
     7
 10
-50.000000000000021
 20
-396.78671000000003
 30
0.0
 11
-24.993774414062511
 21
-390.08631204849758
 31
0.0
  0
LINE
  5
56D
  8
SIDE-DOWN-18_5
 62
     7
 10
-50.000000000000021
 20
-396.78671000000003
 30
0.0
 11
-24.993774414062511
 21
-403.48710795150248
 31
0.0
  0
LINE
  5
56E
  8
SIDE-DOWN-18_5
  6
CONTINUOUS
 62
     7
 10
-50.000000000000021
 20
-396.78671000000003
 30
0.0
 11
10.27777777777778
 21
-396.78671000000003
 31
0.0
  0
TEXT
  5
56F
  8
SIDE-DOWN-18_5
 62
     7
 10
-25.0
 20
-384.73115444444448
 30
0.0
 40
28.222222222222221
  1
28
 41
0.8
 11
-25.0
 21
-356.50893222222231
 31
0.0
 73
     3
  0
TEXT
  5
570
  8
SIDE-DOWN-18_5
 62
     7
 10
-20.1416015625
 20
-343.27108500000003
 30
0.0
 40
21.484375
  1
注1
 41
0.8
 11
-20.1416015625
 21
-321.78671000000003
 31
0.0
 73
     3
  0
LINE
  5
571
  8
SIED-UP18_5
  6
STYLE_12
 62
     7
 10
-5.9422953285862974
 20
-484.2618193583682
 30
0.0
 11
91.832346453917793
 21
-526.77543914312491
 31
0.0
  0
ARC
  5
572
  8
SIED-UP18_5
  6
STYLE_12
 62
     7
 10
-67.133477025223343
 20
-659.44335204069944
 30
0.0
 40
1.5700000000000269
 50
161.4999999999992
 51
256.50003524633462
  0
ARC
  5
573
  8
SIED-UP18_5
  6
STYLE_12
 62
     7
 10
-66.09912711885012
 20
-663.62039794680743
 30
0.0
 40
1.569999999999991
 50
161.5000000000031
 51
256.49999782189178
  0
LINE
  5
574
  8
SIED-UP18_5
  6
STYLE_12
 62
     7
 10
-67.499985307353782
 20
-660.96997304118725
 30
0.0
 11
-63.357901097637424
 21
-661.96439678333331
 31
0.0
  0
LINE
  5
575
  8
SIED-UP18_5
  6
STYLE_12
 62
     7
 10
-67.587995257523644
 20
-663.1222296362514
 30
0.0
 11
-66.914862602851159
 21
-661.11044819330027
 31
0.0
  0
LINE
  5
576
  8
SIED-UP18_5
  6
STYLE_12
 62
     7
 10
-68.622345163897094
 20
-658.9451837301433
 30
0.0
 11
-56.250000000000142
 21
-621.96814178493969
 31
0.0
  0
LINE
  5
577
  8
SIED-UP18_5
  6
STYLE_12
 62
     7
 10
-63.35790109763721
 20
-661.96439678333331
 30
0.0
 11
-56.250000000000142
 21
-640.72111965616159
 31
0.0
  0
LINE
  5
578
  8
SIED-UP18_5
  6
STYLE_12
 62
     7
 10
-57.574220204506581
 20
-667.2816592316218
 30
0.0
 11
-56.250000000000142
 21
-663.32398221905328
 31
0.0
  0
LINE
  5
579
  8
SIED-UP18_5
  6
STYLE_12
 62
     7
 10
-66.4656363981385
 20
-665.14701870789906
 30
0.0
 11
-56.250000000000021
 21
-667.59957642831046
 31
0.0
  0
ARC
  5
57A
  8
SIED-UP18_5
  6
STYLE_12
 62
     7
 10
91.206310470438893
 20
-528.21522348370831
 30
0.0
 40
1.5700000000000269
 50
341.4999999999992
 51
66.50000217810765
  0
LINE
  5
57B
  8
SIED-UP18_5
  6
STYLE_12
 62
     7
 10
68.749999999999872
 20
-600.27798703351232
 30
0.0
 11
92.695178609112745
 21
-528.71339179426457
 31
0.0
  0
TEXT
  5
57C
  8
SIED-UP18_5
 62
     7
 10
-156.2499999999998
 20
-466.92831156250008
 30
0.0
 40
21.484375
  1
注1
 50
90.0
 41
0.8
 11
-177.7343749999998
 21
-466.92831156250008
 31
0.0
 73
     3
  0
ARC
  5
57D
  8
SIED-UP18_5
  6
STYLE_12
 62
     7
 10
-6.568331312065097
 20
-485.70160369895171
 30
0.0
 40
1.5700000000000189
 50
66.500002178107621
 51
161.49999999999909
  0
ARC
  5
57E
  8
SIED-UP18_5
  6
STYLE_12
 62
     7
 10
-9.9342331048828925
 20
-488.49283185571539
 30
0.0
 40
1.569999999999981
 50
66.499964753662894
 51
161.49999999999909
  0
LINE
  5
57F
  8
SIED-UP18_5
  6
STYLE_12
 62
     7
 10
-9.3081961809661031
 20
-487.05304792404633
 30
0.0
 11
-5.4017214980775767
 21
-488.7516343161023
 31
0.0
  0
LINE
  5
580
  8
SIED-UP18_5
  6
STYLE_12
 62
     7
 10
-8.7563563544942014
 20
-487.29299511324632
 30
0.0
 11
-8.0571994507388496
 21
-485.20343538839569
 31
0.0
  0
LINE
  5
581
  8
SIED-UP18_5
  6
STYLE_12
 62
     7
 10
-2.6050075642935009
 20
-502.99599999999998
 30
0.0
 11
2.443364114463392
 21
-487.90800747736228
 31
0.0
  0
LINE
  5
582
  8
SIED-UP18_5
  6
STYLE_12
 62
     7
 10
-10.167819585185621
 20
-502.99599999999992
 30
0.0
 11
-5.4017214980775767
 21
-488.7516343161023
 31
0.0
  0
LINE
  5
583
  8
SIED-UP18_5
  6
STYLE_12
 62
     7
 10
-16.442478207622241
 20
-502.99599999999998
 30
0.0
 11
-11.423101243556641
 21
-487.99466354515931
 31
0.0
  0
LINE
  5
584
  8
SIED-UP18_5
  6
STYLE_12
 62
     7
 10
19.35795955812976
 20
-502.99599999999998
 30
0.0
 11
21.616853668486421
 21
-496.2448771399479
 31
0.0
  0
LINE
  5
585
  8
SIED-UP18_5
  6
CONTINUOUS
 62
     7
 10
-16.568331312065091
 20
-484.1316036989449
 30
0.0
 11
-120.0
 21
-484.1316036989449
 31
0.0
  0
LINE
  5
586
  8
SIED-UP18_5
  6
CONTINUOUS
 62
     7
 10
-56.12370540000007
 20
-509.24599999999339
 30
0.0
 11
-120.0
 21
-509.24599999999339
 31
0.0
  0
LINE
  5
587
  8
SIED-UP18_5
  6
CONTINUOUS
 62
     7
 10
-100.0
 20
-509.24599999999339
 30
0.0
 11
-100.0
 21
-484.1316036989449
 31
0.0
  0
LINE
  5
588
  8
SIED-UP18_5
 62
     7
 10
-100.0
 20
-484.1316036989449
 30
0.0
 11
-106.7003979515024
 21
-459.12537811300751
 31
0.0
  0
LINE
  5
589
  8
SIED-UP18_5
 62
     7
 10
-100.0
 20
-484.1316036989449
 30
0.0
 11
-93.299602048497604
 21
-459.12537811300751
 31
0.0
  0
LINE
  5
58A
  8
SIED-UP18_5
  6
CONTINUOUS
 62
     7
 10
-100.0
 20
-484.1316036989449
 30
0.0
 11
-100.0
 21
-436.50893222222231
 31
0.0
  0
LINE
  5
58B
  8
SIED-UP18_5
 62
     7
 10
-100.0
 20
-509.24599999999339
 30
0.0
 11
-93.299602048497604
 21
-534.25222558593077
 31
0.0
  0
LINE
  5
58C
  8
SIED-UP18_5
 62
     7
 10
-100.0
 20
-509.24599999999339
 30
0.0
 11
-106.7003979515024
 21
-534.25222558593077
 31
0.0
  0
LINE
  5
58D
  8
SIED-UP18_5
  6
CONTINUOUS
 62
     7
 10
-100.0
 20
-509.24599999999339
 30
0.0
 11
-100.0
 21
-559.24599999999339
 31
0.0
  0
TEXT
  5
58E
  8
SIED-UP18_5
 62
     7
 10
-112.0555555555555
 20
-471.78671000000008
 30
0.0
 40
28.222222222222221
  1
25
 50
90.0
 41
0.8
 11
-140.27777777777769
 21
-471.78671000000008
 31
0.0
 73
     3
  0
LINE
  5
58F
  8
SIED-UP18_5
  6
CONTINUOUS
 62
     7
 10
-68.703477025221773
 20
-669.44335204069944
 30
0.0
 11
-68.703477025221773
 21
-891.78670999999997
 31
0.0
  0
LINE
  5
590
  8
SIED-UP18_5
  6
CONTINUOUS
 62
     7
 10
-50.000000000000021
 20
-704.79701259999956
 30
0.0
 11
-50.000000000000021
 21
-891.78670999999997
 31
0.0
  0
LINE
  5
591
  8
SIED-UP18_5
  6
CONTINUOUS
 62
     7
 10
-50.000000000000021
 20
-871.78670999999986
 30
0.0
 11
-68.703477025221773
 21
-871.78670999999986
 31
0.0
  0
LINE
  5
592
  8
SIED-UP18_5
 62
     7
 10
-68.703477025221773
 20
-871.78670999999986
 30
0.0
 11
-93.709702611159287
 21
-878.48710795150237
 31
0.0
  0
LINE
  5
593
  8
SIED-UP18_5
 62
     7
 10
-68.703477025221773
 20
-871.78670999999986
 30
0.0
 11
-93.709702611159287
 21
-865.08631204849769
 31
0.0
  0
LINE
  5
594
  8
SIED-UP18_5
  6
CONTINUOUS
 62
     7
 10
-68.703477025221773
 20
-871.78670999999986
 30
0.0
 11
-135.27777777777769
 21
-871.78670999999986
 31
0.0
  0
LINE
  5
595
  8
SIED-UP18_5
 62
     7
 10
-50.000000000000021
 20
-871.78670999999986
 30
0.0
 11
-24.993774414062511
 21
-865.08631204849769
 31
0.0
  0
LINE
  5
596
  8
SIED-UP18_5
 62
     7
 10
-50.000000000000021
 20
-871.78670999999986
 30
0.0
 11
-24.993774414062511
 21
-878.48710795150237
 31
0.0
  0
LINE
  5
597
  8
SIED-UP18_5
  6
CONTINUOUS
 62
     7
 10
-50.000000000000021
 20
-871.78670999999986
 30
0.0
 11
-0.0000000000000142
 21
-871.78670999999986
 31
0.0
  0
TEXT
  5
598
  8
SIED-UP18_5
 62
     7
 10
-135.27777777777769
 20
-859.73115444444443
 30
0.0
 40
28.222222222222221
  1
19
 41
0.8
 11
-135.27777777777769
 21
-831.50893222222226
 31
0.0
 73
     3
  0
TEXT
  5
599
  8
SIED-UP18_5
 62
     7
 10
-120.1416015625
 20
-825.88212034791934
 30
0.0
 40
21.484375
  1
注1
 41
0.8
 11
-120.1416015625
 21
-804.39774534791934
 31
0.0
 73
     3
  0
ARC
  5
59A
  8
TOP22
  6
STYLE_12
 62
     7
 10
-448.45367446379282
 20
-251.8750810336519
 30
0.0
 40
12.500000000000069
 50
305.32979117494648
 51
16.300000000000011
  0
ARC
  5
59B
  8
TOP22
  6
STYLE_12
 62
     7
 10
-588.12609500221595
 20
-55.745461355449152
 30
0.0
 40
255.52399999999989
 50
301.07111586356581
 51
306.26677823053558
  0
LINE
  5
59C
  8
TOP22
  6
STYLE_12
 62
     7
 10
-493.16334623710662
 20
-180.90840052655901
 30
0.0
 11
-440.35936490988968
 21
-235.01865059532031
 31
0.0
  0
TEXT
  5
59D
  8
TOP22
 62
     7
 10
-420.08594393121763
 20
-366.92831156250003
 30
0.0
 40
21.484375
  1
注1
 50
90.0
 41
0.8
 11
-441.57031893121763
 21
-366.92831156250003
 31
0.0
 73
     3
  0
LINE
  5
59E
  8
TOP22
  6
STYLE_12
 62
     7
 10
-553.74254870486027
 20
-308.94555282466177
 30
0.0
 11
-554.89500694919445
 21
-306.09311857499949
 31
0.0
  0
ARC
  5
59F
  8
TOP22
  6
STYLE_12
 62
     7
 10
-552.35492646134037
 20
-293.85391961774639
 30
0.0
 40
12.50000000000005
 50
218.07456179460081
 51
278.67021629622309
  0
ARC
  5
5A0
  8
TOP22
  6
STYLE_12
 62
     7
 10
-588.9900550097077
 20
-53.607105003598463
 30
0.0
 40
255.52399999999989
 50
278.6702162962228
 51
283.98001226157157
  0
ARC
  5
5A1
  8
TOP22
  6
STYLE_12
 62
     7
 10
-588.12609500221595
 20
-55.745461355449152
 30
0.0
 40
255.52399999999989
 50
277.73323119606118
 51
285.84338429602769
  0
ARC
  5
5A2
  8
TOP22
  6
STYLE_12
 62
     7
 10
-588.9900550097077
 20
-53.607105003598463
 30
0.0
 40
255.52399999999989
 50
301.29756041899958
 51
305.32979117494568
  0
ARC
  5
5A3
  8
TOP22
  6
STYLE_12
 62
     7
 10
-502.10950540840338
 20
-189.63859159444689
 30
0.0
 40
12.499999999999959
 50
44.299999999999812
 51
111.9999999999998
  0
LINE
  5
5A4
  8
TOP22
  6
STYLE_12
 62
     7
 10
-517.58880122261917
 20
-182.41094877738081
 30
0.0
 11
-506.7920878261022
 21
-178.0487934123621
 31
0.0
  0
TEXT
  5
5A5
  8
TOP22
 62
     7
 10
-395.1416015625
 20
-173.55818151256469
 30
0.0
 40
21.484375
  1
注1
 41
0.8
 11
-395.1416015625
 21
-152.07380651256469
 31
0.0
 73
     3
  0
LINE
  5
5A6
  8
TOP22
  6
STYLE_12
 62
     7
 10
-436.45610831410289
 20
-248.366747172142
 30
0.0
 11
-440.35936490988979
 21
-235.01865059532031
 31
0.0
  0
LINE
  5
5A7
  8
TOP22
  6
STYLE_12
 62
     7
 10
-436.97195149486532
 20
-261.7671579715074
 30
0.0
 11
-438.12441476439341
 21
-258.91471128405328
 31
0.0
  0
LINE
  5
5A8
  8
TOP22
  6
CONTINUOUS
 62
     7
 10
-543.74254870486038
 20
-308.94555282466177
 30
0.0
 11
-355.0
 21
-308.94555282466177
 31
0.0
  0
LINE
  5
5A9
  8
TOP22
  6
CONTINUOUS
 62
     7
 10
-520.14975000000004
 20
-300.00000000000051
 30
0.0
 11
-355.0
 21
-300.00000000000051
 31
0.0
  0
LINE
  5
5AA
  8
TOP22
  6
CONTINUOUS
 62
     7
 10
-375.0
 20
-300.00000000000051
 30
0.0
 11
-375.0
 21
-308.94555282466177
 31
0.0
  0
LINE
  5
5AB
  8
TOP22
 62
     7
 10
-375.0
 20
-308.94555282466177
 30
0.0
 11
-368.2996020484976
 21
-333.95177841059927
 31
0.0
  0
LINE
  5
5AC
  8
TOP22
 62
     7
 10
-375.0
 20
-308.94555282466177
 30
0.0
 11
-381.70039795150251
 21
-333.95177841059927
 31
0.0
  0
LINE
  5
5AD
  8
TOP22
  6
CONTINUOUS
 62
     7
 10
-375.0
 20
-308.94555282466177
 30
0.0
 11
-375.0
 21
-339.425598888889
 31
0.0
  0
LINE
  5
5AE
  8
TOP22
 62
     7
 10
-375.0
 20
-300.00000000000051
 30
0.0
 11
-381.70039795150251
 21
-274.99377441406313
 31
0.0
  0
LINE
  5
5AF
  8
TOP22
 62
     7
 10
-375.0
 20
-300.00000000000051
 30
0.0
 11
-368.2996020484976
 21
-274.99377441406313
 31
0.0
  0
LINE
  5
5B0
  8
TOP22
  6
CONTINUOUS
 62
     7
 10
-375.0
 20
-300.00000000000051
 30
0.0
 11
-375.0
 21
-250.00000000000051
 31
0.0
  0
TEXT
  5
5B1
  8
TOP22
 62
     7
 10
-387.05555555555549
 20
-339.425598888889
 30
0.0
 40
28.222222222222221
  1
9
 50
90.0
 41
0.8
 11
-415.27777777777771
 21
-339.425598888889
 31
0.0
 73
     3
  0
LINE
  5
5B2
  8
TOP22
  6
CONTINUOUS
 62
     7
 10
-435.9536744637897
 20
-241.8750810336519
 30
0.0
 11
-435.9536744637897
 21
-201.78671000000011
 31
0.0
  0
LINE
  5
5B3
  8
TOP22
  6
CONTINUOUS
 62
     7
 10
-460.29974999999979
 20
-256.049598
 30
0.0
 11
-460.29974999999979
 21
-201.78671000000011
 31
0.0
  0
LINE
  5
5B4
  8
TOP22
  6
CONTINUOUS
 62
     7
 10
-460.29974999999979
 20
-221.78671
 30
0.0
 11
-435.9536744637897
 21
-221.78671
 31
0.0
  0
LINE
  5
5B5
  8
TOP22
 62
     7
 10
-435.9536744637897
 20
-221.78671
 30
0.0
 11
-410.9474488778522
 21
-215.0863120484976
 31
0.0
  0
LINE
  5
5B6
  8
TOP22
 62
     7
 10
-435.9536744637897
 20
-221.78671
 30
0.0
 11
-410.9474488778522
 21
-228.48710795150251
 31
0.0
  0
LINE
  5
5B7
  8
TOP22
  6
CONTINUOUS
 62
     7
 10
-435.9536744637897
 20
-221.78671
 30
0.0
 11
-364.72222222222217
 21
-221.78671
 31
0.0
  0
LINE
  5
5B8
  8
TOP22
 62
     7
 10
-460.29974999999979
 20
-221.78671
 30
0.0
 11
-485.30597558593729
 21
-228.48710795150251
 31
0.0
  0
LINE
  5
5B9
  8
TOP22
 62
     7
 10
-460.29974999999979
 20
-221.78671
 30
0.0
 11
-485.30597558593729
 21
-215.0863120484976
 31
0.0
  0
LINE
  5
5BA
  8
TOP22
  6
CONTINUOUS
 62
     7
 10
-460.29974999999979
 20
-221.78671
 30
0.0
 11
-510.29974999999979
 21
-221.78671
 31
0.0
  0
TEXT
  5
5BB
  8
TOP22
 62
     7
 10
-400.0
 20
-209.73115444444451
 30
0.0
 40
28.222222222222221
  1
24
 41
0.8
 11
-400.0
 21
-181.50893222222231
 31
0.0
 73
     3
  0
LINE
  5
5BC
  8
BRACKET
  6
STYLE_12
 62
     7
 10
-549.89975000000004
 20
-158.34193019999989
 30
0.0
 11
-510.39974999999998
 21
-158.34193019999989
 31
0.0
  0
ARC
  5
5BD
  8
BRACKET
  6
STYLE_12
 62
     7
 10
-530.14975000000004
 20
-136.11506452835729
 30
0.0
 40
31.726865671642571
 50
232.0756085708224
 51
307.9243914291776
  0
LINE
  5
5BE
  8
BRACKET
  6
STYLE_12
 62
     7
 10
-522.64975000000015
 20
-169.64193020000039
 30
0.0
 11
-522.64975000000015
 21
-166.94271454172139
 31
0.0
  0
LINE
  5
5BF
  8
BRACKET
  6
STYLE_12
 62
     7
 10
-537.64975000000015
 20
-169.64193020000039
 30
0.0
 11
-537.64975000000015
 21
-166.94271454172139
 31
0.0
  0
LINE
  5
5C0
  8
BRACKET
  6
STYLE_12
 62
     7
 10
-533.2497500000004
 20
-175.74193019999981
 30
0.0
 11
-533.2497500000004
 21
-188.583600124421
 31
0.0
  0
LINE
  5
5C1
  8
BRACKET
  6
STYLE_12
 62
     7
 10
-527.04975000000013
 20
-188.5836001244206
 30
0.0
 11
-527.04975000000013
 21
-175.7419302000005
 31
0.0
  0
LINE
  5
5C2
  8
BRACKET
  6
STYLE_12
 62
     7
 10
-534.9994922611927
 20
-175.7419302000005
 30
0.0
 11
-534.9994922611927
 21
-170.94193020000009
 31
0.0
  0
LINE
  5
5C3
  8
BRACKET
  6
STYLE_12
 62
     7
 10
-525.30000773880727
 20
-175.7419302000005
 30
0.0
 11
-525.30000773880715
 21
-170.94193020000009
 31
0.0
  0
LINE
  5
5C4
  8
BRACKET
  6
STYLE_12
 62
     7
 10
-530.14975000000004
 20
-175.7419302000005
 30
0.0
 11
-530.14975000000004
 21
-170.94193020000009
 31
0.0
  0
LINE
  5
5C5
  8
BRACKET
  6
STYLE_12
 62
     7
 10
-534.9994922611927
 20
-175.7419302000005
 30
0.0
 11
-525.30000773880727
 21
-175.7419302000005
 31
0.0
  0
LINE
  5
5C6
  8
BRACKET
  6
STYLE_12
 62
     7
 10
-537.64975000000004
 20
-169.64193020000039
 30
0.0
 11
-522.64975000000004
 21
-169.64193020000039
 31
0.0
  0
LINE
  5
5C7
  8
BRACKET
  6
STYLE_12
 62
     7
 10
-535.54975000000013
 20
-170.94193020000009
 30
0.0
 11
-524.74975000000006
 21
-170.94193020000009
 31
0.0
  0
LINE
  5
5C8
  8
BRACKET
  6
STYLE_12
 62
     7
 10
-535.54975000000013
 20
-170.94193020000009
 30
0.0
 11
-535.54975000000013
 21
-169.6419301999999
 31
0.0
  0
LINE
  5
5C9
  8
BRACKET
  6
STYLE_12
 62
     7
 10
-527.14975000000015
 20
-170.94193020000009
 30
0.0
 11
-527.14975000000015
 21
-169.6419301999999
 31
0.0
  0
LINE
  5
5CA
  8
BRACKET
  6
STYLE_12
 62
     7
 10
-524.74975000000006
 20
-170.94193020000009
 30
0.0
 11
-524.74975000000006
 21
-169.64193020000039
 31
0.0
  0
ARC
  5
5CB
  8
BRACKET
  6
STYLE_12
 62
     7
 10
-530.14975000000004
 20
-199.2419302000001
 30
0.0
 40
11.099999999999829
 50
106.2171945632188
 51
73.782805436784102
  0
LINE
  5
5CC
  8
BRACKET
  6
STYLE_12
 62
     7
 10
-533.2497500000004
 20
-188.583600124421
 30
0.0
 11
-527.04975000000013
 21
-188.5836001244206
 31
0.0
  0
LINE
  5
5CD
  8
BRACKET
  6
STYLE_12
 62
     7
 10
-539.89975000000004
 20
-162.74193019999981
 30
0.0
 11
-520.39975000000004
 21
-162.74193019999981
 31
0.0
  0
LINE
  5
5CE
  8
BRACKET
  6
STYLE_12
 62
     7
 10
-549.64975000000004
 20
-161.1419302000001
 30
0.0
 11
-549.89975000000004
 21
-158.34193019999989
 31
0.0
  0
LINE
  5
5CF
  8
BRACKET
  6
STYLE_12
 62
     7
 10
-539.89975000000004
 20
-166.30664456893231
 30
0.0
 11
-539.89975000000004
 21
-162.74193019999981
 31
0.0
  0
LINE
  5
5D0
  8
BRACKET
  6
STYLE_12
 62
     7
 10
-510.64974999999993
 20
-161.1419302000001
 30
0.0
 11
-510.39974999999998
 21
-158.34193019999989
 31
0.0
  0
LINE
  5
5D1
  8
BRACKET
  6
STYLE_12
 62
     7
 10
-520.39975000000004
 20
-166.30664456893231
 30
0.0
 11
-520.39975000000004
 21
-162.74193019999981
 31
0.0
  0
ARC
  5
5D2
  8
BRACKET
  6
STYLE_12
 62
     7
 10
50.758069799999923
 20
-619.69835445355955
 30
0.0
 40
11.09999999999998
 50
16.217194563217362
 51
343.78280543678369
  0
LINE
  5
5D3
  8
BRACKET
  6
STYLE_12
 62
     7
 10
79.058069799999984
 20
-614.29835445355968
 30
0.0
 11
80.35806980000028
 21
-614.29835445355968
 31
0.0
  0
LINE
  5
5D4
  8
BRACKET
  6
STYLE_12
 62
     7
 10
79.058069799999984
 20
-622.69835445355955
 30
0.0
 11
80.35806980000028
 21
-622.69835445355955
 31
0.0
  0
LINE
  5
5D5
  8
BRACKET
  6
STYLE_12
 62
     7
 10
79.058069799999984
 20
-625.0983544535593
 30
0.0
 11
80.358069799999797
 21
-625.0983544535593
 31
0.0
  0
LINE
  5
5D6
  8
BRACKET
  6
STYLE_12
 62
     7
 10
61.416399875579252
 20
-616.59835445355952
 30
0.0
 11
74.25806980000003
 21
-616.59835445355952
 31
0.0
  0
LINE
  5
5D7
  8
BRACKET
  6
STYLE_12
 62
     7
 10
61.416399875579252
 20
-622.79835445355968
 30
0.0
 11
74.25806980000003
 21
-622.79835445355968
 31
0.0
  0
LINE
  5
5D8
  8
BRACKET
  6
STYLE_12
 62
     7
 10
74.25806980000003
 20
-614.84861219236655
 30
0.0
 11
79.058069799999984
 21
-614.84861219236655
 31
0.0
  0
LINE
  5
5D9
  8
BRACKET
  6
STYLE_12
 62
     7
 10
74.25806980000003
 20
-624.54809671475232
 30
0.0
 11
79.058069799999984
 21
-624.54809671475232
 31
0.0
  0
LINE
  5
5DA
  8
BRACKET
  6
STYLE_12
 62
     7
 10
74.25806980000003
 20
-619.69835445355955
 30
0.0
 11
79.058069799999984
 21
-619.69835445355955
 31
0.0
  0
LINE
  5
5DB
  8
BRACKET
  6
STYLE_12
 62
     7
 10
74.25806980000003
 20
-614.84861219236655
 30
0.0
 11
74.25806980000003
 21
-624.54809671475232
 31
0.0
  0
LINE
  5
5DC
  8
BRACKET
  6
STYLE_12
 62
     7
 10
79.058069799999984
 20
-614.29835445355968
 30
0.0
 11
79.058069799999984
 21
-625.0983544535593
 31
0.0
  0
LINE
  5
5DD
  8
BRACKET
  6
STYLE_12
 62
     7
 10
61.416399875579252
 20
-622.79835445355968
 30
0.0
 11
61.416399875579252
 21
-616.59835445355952
 31
0.0
  0
LINE
  5
5DE
  8
BRACKET
  6
STYLE_12
 62
     7
 10
83.658069800000007
 20
-656.44835445355977
 30
0.0
 11
91.658069800000007
 21
-656.44835445355977
 31
0.0
  0
LINE
  5
5DF
  8
BRACKET
  6
STYLE_12
 62
     7
 10
83.658069800000007
 20
-582.94835445355955
 30
0.0
 11
91.658069800000007
 21
-582.94835445355955
 31
0.0
  0
LINE
  5
5E0
  8
BRACKET
  6
STYLE_12
 62
     7
 10
82.158069800000007
 20
-599.33072054847423
 30
0.0
 11
82.158069800000007
 21
-640.06598835864474
 31
0.0
  0
LINE
  5
5E1
  8
BRACKET
  6
STYLE_12
 62
     7
 10
82.216211311746846
 20
-640.8262742799144
 30
0.0
 11
83.599928288253153
 21
-649.82043462720492
 31
0.0
  0
LINE
  5
5E2
  8
BRACKET
  6
STYLE_12
 62
     7
 10
83.658069800000007
 20
-650.58072054847491
 30
0.0
 11
83.658069800000007
 21
-656.44835445355977
 31
0.0
  0
ARC
  5
5E3
  8
BRACKET
  6
STYLE_12
 62
     7
 10
78.658069800000121
 20
-650.58072054847491
 30
0.0
 40
5.0
 50
0.0
 51
8.7461622625560231
  0
ARC
  5
5E4
  8
BRACKET
  6
STYLE_12
 62
     7
 10
87.158069799999794
 20
-640.06598835864474
 30
0.0
 40
5.0
 50
180.0
 51
188.74616226255591
  0
LINE
  5
5E5
  8
BRACKET
  6
STYLE_12
 62
     7
 10
83.658069800000007
 20
-582.94835445355955
 30
0.0
 11
83.658069800000007
 21
-588.81598835864452
 31
0.0
  0
ARC
  5
5E6
  8
BRACKET
  6
STYLE_12
 62
     7
 10
78.658069800000121
 20
-588.81598835864452
 30
0.0
 40
4.9999999999999529
 50
351.25383773744522
 51
0.0
  0
LINE
  5
5E7
  8
BRACKET
  6
STYLE_12
 62
     7
 10
83.599928288253153
 20
-589.57627427991395
 30
0.0
 11
82.216211311746846
 21
-598.57043462720435
 31
0.0
  0
ARC
  5
5E8
  8
BRACKET
  6
STYLE_12
 62
     7
 10
87.158069800000135
 20
-599.33072054847423
 30
0.0
 40
4.9999999999999529
 50
171.2538377374452
 51
180.0
  0
LINE
  5
5E9
  8
BRACKET
  6
STYLE_12
 62
     7
 10
80.358069799999797
 20
-612.19835445355932
 30
0.0
 11
82.158069800000007
 21
-612.19835445355932
 31
0.0
  0
LINE
  5
5EA
  8
BRACKET
  6
STYLE_12
 62
     7
 10
80.358069799999797
 20
-627.19835445355955
 30
0.0
 11
82.158069800000007
 21
-627.19835445355955
 31
0.0
  0
LINE
  5
5EB
  8
BRACKET
  6
STYLE_12
 62
     7
 10
80.358069799999797
 20
-612.19835445355955
 30
0.0
 11
80.358069799999797
 21
-627.19835445355955
 31
0.0
  0
LINE
  5
5EC
  8
BRACKET
  6
STYLE_12
 62
     7
 10
91.658069800000007
 20
-656.44835445355977
 30
0.0
 11
91.658069800000007
 21
-582.94835445355955
 31
0.0
  0
LINE
  5
5ED
  8
BRACKET
  6
STYLE_12
 62
     7
 10
88.858069799999953
 20
-582.94835445355955
 30
0.0
 11
88.858069799999953
 21
-656.44835445355977
 31
0.0
  0
LINE
  5
5EE
  8
BRACKET
  6
STYLE_11
 62
     7
 10
-530.14975000000004
 20
-199.2419302000001
 30
0.0
 11
-483.03994787766169
 21
-315.84278210004311
 31
0.0
  0
LINE
  5
5EF
  8
BRACKET
  6
STYLE_11
 62
     7
 10
-530.14974999999981
 20
-199.2419302000001
 30
0.0
 11
-577.25955212233839
 21
-315.84278210004311
 31
0.0
  0
LINE
  5
5F0
  8
BRACKET
  6
STYLE_11
 62
     7
 10
-530.14975000000004
 20
-325.0
 30
0.0
 11
-530.14975000000004
 21
-158.34193019999989
 31
0.0
  0
LINE
  5
5F1
  8
BRACKET
  6
STYLE_11
 62
     7
 10
-100.0
 20
-619.69835445355955
 30
0.0
 11
91.658069799999794
 21
-619.69835445355955
 31
0.0
  0
LINE
  5
5F2
  8
BRACKET
  6
STYLE_11
 62
     7
 10
-100.0
 20
-670.14129898580654
 30
0.0
 11
50.758069799999582
 21
-619.69835445355955
 31
0.0
  0
LINE
  5
5F3
  8
BRACKET
  6
STYLE_11
 62
     7
 10
-100.0
 20
-569.25540992131255
 30
0.0
 11
50.758069799999582
 21
-619.69835445355955
 31
0.0
  0
INSERT
  5
5F4
  8
PATTERN_FILL
 62
     7
  2
*U0
 10
100.0
 20
140.0
 30
0.0
  0
INSERT
  5
5F5
  8
PATTERN_FILL
 62
     7
  2
*U1
 10
100.0
 20
140.0
 30
0.0
  0
LINE
  5
5F6
  8
SPEC
  6
CONTINUOUS
 62
     7
 10
-725.00018750000015
 20
1371.7800850000001
 30
0.0
 11
850.0
 21
1371.7800849999981
 31
0.0
  0
LINE
  5
5F7
  8
SPEC
  6
CONTINUOUS
 62
     7
 10
-725.00018750000095
 20
1334.28017875
 30
0.0
 11
849.99999999999943
 21
1334.2801787500021
 31
0.0
  0
LINE
  5
5F8
  8
SPEC
  6
CONTINUOUS
 62
     7
 10
-725.00018750000118
 20
1296.780272500004
 30
0.0
 11
849.99999999999875
 21
1296.7802725000049
 31
0.0
  0
LINE
  5
5F9
  8
SPEC
  6
CONTINUOUS
 62
     7
 10
-725.00018750000856
 20
1221.7804599999961
 30
0.0
 11
850.0
 21
1221.780459999994
 31
0.0
  0
LINE
  5
5FA
  8
SPEC
  6
CONTINUOUS
 62
     7
 10
-725.00018750000288
 20
1184.280553749996
 30
0.0
 11
850.0
 21
1184.2805537499969
 31
0.0
  0
LINE
  5
5FB
  8
SPEC
  6
CONTINUOUS
 62
     7
 10
-725.00018750000538
 20
1109.280741250009
 30
0.0
 11
849.99999999999875
 21
1109.2807412500081
 31
0.0
  0
LINE
  5
5FC
  8
SPEC
  6
CONTINUOUS
 62
     7
 10
-725.00018750000515
 20
996.78102250002348
 30
0.0
 11
850.00000000000034
 21
996.78102250002257
 31
0.0
  0
LINE
  5
5FD
  8
SPEC
  6
CONTINUOUS
 62
     7
 10
-725.00018750000515
 20
1034.280928750022
 30
0.0
 11
850.00000000000034
 21
1034.2809287500211
 31
0.0
  0
LINE
  5
5FE
  8
SPEC
  6
CONTINUOUS
 62
     7
 10
-725.00018750000243
 20
1259.280366249996
 30
0.0
 11
850.0
 21
1259.2803662499971
 31
0.0
  0
LINE
  5
5FF
  8
SPEC
  6
CONTINUOUS
 62
     7
 10
-725.00018750000515
 20
846.78139750003174
 30
0.0
 11
850.00000000000102
 21
846.78139750003004
 31
0.0
  0
LINE
  5
600
  8
SPEC
  6
CONTINUOUS
 62
     7
 10
-725.00018750000515
 20
884.28130375003104
 30
0.0
 11
850.00000000000102
 21
884.28130375002991
 31
0.0
  0
LINE
  5
601
  8
SPEC
  6
CONTINUOUS
 62
     7
 10
-725.00018750000413
 20
809.28149125003142
 30
0.0
 11
849.99999999999761
 21
809.28149125003051
 31
0.0
  0
LINE
  5
602
  8
SPEC
  6
CONTINUOUS
 62
     7
 10
-725.00018750000504
 20
771.78158500003155
 30
0.0
 11
850.0
 21
771.78158500003155
 31
0.0
  0
LINE
  5
603
  8
SPEC
  6
CONTINUOUS
 62
     7
 10
-725.00018750000504
 20
734.28167875003192
 30
0.0
 11
850.0
 21
734.28167875003192
 31
0.0
  0
LINE
  5
604
  8
SPEC
  6
CONTINUOUS
 62
     7
 10
-725.0001874999989
 20
696.78177250003148
 30
0.0
 11
850.0
 21
696.78177250003239
 31
0.0
  0
LINE
  5
605
  8
SPEC
  6
CONTINUOUS
 62
     7
 10
-725.0001874999989
 20
659.28186625003116
 30
0.0
 11
850.0
 21
659.28186625003195
 31
0.0
  0
LINE
  5
606
  8
SPEC
  6
CONTINUOUS
 62
     7
 10
-725.00018750000015
 20
621.78177250003137
 30
0.0
 11
-725.00018750000015
 21
1371.7800850000001
 31
0.0
  0
TEXT
  5
607
  8
SPEC
 62
     7
 10
-712.5
 20
1387.481090419921
 30
0.0
 40
25.781185546875001
  1
仕様
 41
0.8
 11
-712.5
 21
1413.2622759667961
 31
0.0
 73
     3
  0
LINE
  5
608
  8
SPEC
  6
CONTINUOUS
 62
     7
 10
-400.00100000000032
 20
1371.7800850000001
 30
0.0
 11
-400.00099999999901
 21
621.7800850000001
 31
0.0
  0
LINE
  5
609
  8
SPEC
  6
CONTINUOUS
 62
     7
 10
433.33274999999958
 20
533.33325000000002
 30
0.0
 11
433.33274999999958
 21
400.00025000000051
 31
0.0
  0
TEXT
  5
60A
  8
SPEC
 62
     7
 10
487.56087487433791
 20
510.25409869791707
 30
0.0
 40
16.93333333333333
  1
ハイパス
 41
0.8
 11
487.56087487433791
 21
527.18743203125041
 31
0.0
 73
     3
  0
LINE
  5
60B
  8
SPEC
  6
CONTINUOUS
 62
     7
 10
225.0
 20
500.00000000000011
 30
0.0
 11
225.0
 21
566.66650000000004
 31
0.0
  0
LINE
  5
60C
  8
SPEC
  6
CONTINUOUS
 62
     7
 10
474.9999999999996
 20
450.00012500000048
 30
0.0
 11
475.0
 21
549.99987500000088
 31
0.0
  0
LINE
  5
60D
  8
SPEC
  6
CONTINUOUS
 62
     7
 10
400.0
 20
500.00000000000011
 30
0.0
 11
400.0
 21
566.66650000000004
 31
0.0
  0
CIRCLE
  5
60E
  8
SPEC
  6
CONTINUOUS
 62
     7
 10
800.0
 20
500.0
 30
0.0
 40
49.999875000000422
  0
CIRCLE
  5
60F
  8
SPEC
  6
CONTINUOUS
 62
     7
 10
800.0
 20
500.0
 30
0.0
 40
33.33325000000012
  0
CIRCLE
  5
610
  8
SPEC
  6
CONTINUOUS
 62
     7
 10
800.0
 20
500.0
 30
0.0
 40
29.33326000000033
  0
ARC
  5
611
  8
SPEC
  6
CONTINUOUS
 62
     7
 10
800.0
 20
500.0
 30
0.0
 40
83.333124999999967
 50
168.4630409671845
 51
191.53695903281559
  0
LINE
  5
612
  8
SPEC
  6
CONTINUOUS
 62
     7
 10
600.0
 20
450.00012500000031
 30
0.0
 11
600.0
 21
549.99987500000066
 31
0.0
  0
ARC
  5
613
  8
SPEC
  6
CONTINUOUS
 62
     7
 10
800.0
 20
500.0
 30
0.0
 40
83.333125000000024
 50
348.46304096718438
 51
11.53695903281538
  0
TEXT
  5
614
  8
SPEC
 62
     7
 10
899.99974999999995
 20
503.32919211739272
 30
0.0
 40
16.113240966796869
  1
Driver
 41
0.8
 11
899.99974999999995
 21
519.44243308418947
 31
0.0
 73
     3
  0
LINE
  5
615
  8
SPEC
  6
STYLE_12
 62
     7
 10
474.9999999999996
 20
333.33375000000052
 30
0.0
 11
600.0
 21
333.33375000000052
 31
0.0
  0
LINE
  5
616
  8
SPEC
  6
CONTINUOUS
 62
     7
 10
474.9999999999996
 20
316.66712500000062
 30
0.0
 11
600.0
 21
316.66712500000062
 31
0.0
  0
TEXT
  5
617
  8
SPEC
 62
     7
 10
487.56087487433791
 20
350.5539771158854
 30
0.0
 40
16.93333333333333
  1
フィルター
 41
0.8
 11
487.56087487433791
 21
367.48731044921868
 31
0.0
 73
     3
  0
LINE
  5
618
  8
SPEC
  6
STYLE_12
 62
     7
 10
474.9999999999996
 20
400.00025000000051
 30
0.0
 11
600.0
 21
400.00025000000051
 31
0.0
  0
LINE
  5
619
  8
SPEC
  6
CONTINUOUS
 62
     7
 10
474.9999999999996
 20
416.66687500000029
 30
0.0
 11
600.0
 21
416.66687500000029
 31
0.0
  0
LINE
  5
61A
  8
SPEC
  6
CONTINUOUS
 62
     7
 10
474.9999999999996
 20
450.00012500000031
 30
0.0
 11
600.0
 21
450.00012500000031
 31
0.0
  0
LINE
  5
61B
  8
SPEC
  6
STYLE_12
 62
     7
 10
474.9999999999996
 20
466.66675000000032
 30
0.0
 11
600.0
 21
466.66675000000032
 31
0.0
  0
TEXT
  5
61C
  8
SPEC
 62
     7
 10
487.56087487433791
 20
483.88697711588588
 30
0.0
 40
16.93333333333333
  1
フィルター
 41
0.8
 11
487.56087487433791
 21
500.82031044921922
 31
0.0
 73
     3
  0
LINE
  5
61D
  8
SPEC
  6
CONTINUOUS
 62
     7
 10
225.0
 20
500.00000000000011
 30
0.0
 11
400.0
 21
500.00000000000011
 31
0.0
  0
LINE
  5
61E
  8
SPEC
  6
CONTINUOUS
 62
     7
 10
458.33487499999961
 20
170.83324999999991
 30
0.0
 11
608.3348749999999
 21
170.83324999999991
 31
0.0
  0
TEXT
  5
61F
  8
SPEC
 62
     7
 10
487.56087487433791
 20
376.92109869791648
 30
0.0
 40
16.93333333333333
  1
ローパス
 41
0.8
 11
487.56087487433791
 21
393.85443203124981
 31
0.0
 73
     3
  0
TEXT
  5
620
  8
SPEC
 62
     7
 10
489.95449385880408
 20
187.499875
 30
0.0
 40
25.781185546875001
  1
接続図
 41
0.8
 11
489.95449385880408
 21
213.28106054687501
 31
0.0
 73
     3
  0
LINE
  5
621
  8
SPEC
  6
CONTINUOUS
 62
     7
 10
449.99937499999942
 20
333.33375000000052
 30
0.0
 11
449.99937499999942
 21
466.66675000000032
 31
0.0
  0
LINE
  5
622
  8
SPEC
  6
CONTINUOUS
 62
     7
 10
474.9999999999996
 20
316.66712500000068
 30
0.0
 11
474.9999999999996
 21
416.6668750000004
 31
0.0
  0
CIRCLE
  5
623
  8
SPEC
  6
CONTINUOUS
 62
     7
 10
449.99937499999942
 20
333.3337499999995
 30
0.0
 40
3.515616210937424
  0
LINE
  5
624
  8
SPEC
  6
CONTINUOUS
 62
     7
 10
433.33274999999958
 20
400.00025000000051
 30
0.0
 11
474.9999999999996
 21
400.00025000000051
 31
0.0
  0
LINE
  5
625
  8
SPEC
  6
CONTINUOUS
 62
     7
 10
449.99937499999942
 20
466.66675000000032
 30
0.0
 11
474.9999999999996
 21
466.66675000000032
 31
0.0
  0
LINE
  5
626
  8
SPEC
  6
CONTINUOUS
 62
     7
 10
847.14033422797252
 20
483.33337499999959
 30
0.0
 11
881.64945396862731
 21
483.33337499999959
 31
0.0
  0
ARC
  5
627
  8
SPEC
  6
CONTINUOUS
 62
     7
 10
870.73010523976802
 20
262.6036447602321
 30
0.0
 40
10.66663999999998
 50
273.13639239527521
 51
356.8636076047211
  0
ARC
  5
628
  8
SPEC
  6
CONTINUOUS
 62
     7
 10
870.73010523976802
 20
404.0638552397686
 30
0.0
 40
10.666639999999999
 50
3.1363923952777131
 51
86.86360760472229
  0
CIRCLE
  5
629
  8
SPEC
  6
CONTINUOUS
 62
     7
 10
800.0
 20
333.33375000000052
 30
0.0
 40
77.333140000000185
  0
ARC
  5
62A
  8
SPEC
  6
CONTINUOUS
 62
     7
 10
799.99999999999955
 20
1553.4140331249951
 30
0.0
 40
1303.413408124994
 50
266.86360760472212
 51
273.13639239527771
  0
LINE
  5
62B
  8
SPEC
  6
CONTINUOUS
 62
     7
 10
845.11833355699309
 20
311.78558355699369
 30
0.0
 11
856.44511788558384
 21
300.45879922840322
 31
0.0
  0
LINE
  5
62C
  8
SPEC
  6
CONTINUOUS
 62
     7
 10
845.11833355699309
 20
354.88191644300713
 30
0.0
 11
856.44511788558236
 21
366.20870077159651
 31
0.0
  0
ARC
  5
62D
  8
SPEC
  6
CONTINUOUS
 62
     7
 10
799.99999999999955
 20
-886.74653312499402
 30
0.0
 40
1303.413408124994
 50
86.863607604722105
 51
93.136392395277795
  0
TEXT
  5
62E
  8
SPEC
 62
     7
 10
823.33327500000019
 20
191.6665625000004
 30
0.0
 40
17.187457031249998
  1
RED
 41
0.8
 11
823.33327500000019
 21
208.8540195312504
 31
0.0
 73
     3
  0
ARC
  5
62F
  8
SPEC
  6
CONTINUOUS
 62
     7
 10
2020.080283124995
 20
333.33375000000052
 30
0.0
 40
1303.413408124994
 50
176.86360760472209
 51
183.1363923952778
  0
ARC
  5
630
  8
SPEC
  6
CONTINUOUS
 62
     7
 10
800.0
 20
333.33375000000052
 30
0.0
 40
68.718255297560034
 50
62.019655054720488
 51
117.9803449452782
  0
LINE
  5
631
  8
SPEC
  6
CONTINUOUS
 62
     7
 10
600.0
 20
316.66712500000062
 30
0.0
 11
600.0
 21
416.66687500000029
 31
0.0
  0
CIRCLE
  5
632
  8
SPEC
  6
CONTINUOUS
 62
     7
 10
800.0
 20
333.33375000000052
 30
0.0
 40
49.999874999999982
  0
LINE
  5
633
  8
SPEC
  6
CONTINUOUS
 62
     7
 10
778.45183355699282
 20
378.45208355699361
 30
0.0
 11
767.1250492284006
 21
389.77886788558652
 31
0.0
  0
LINE
  5
634
  8
SPEC
  6
CONTINUOUS
 62
     7
 10
821.54816644300661
 20
378.45208355699361
 30
0.0
 11
832.87495077160236
 21
389.77886788558948
 31
0.0
  0
ARC
  5
635
  8
SPEC
  6
CONTINUOUS
 62
     7
 10
729.26989476023164
 20
262.6036447602321
 30
0.0
 40
10.66663999999999
 50
183.1363923952764
 51
266.86360760471979
  0
CIRCLE
  5
636
  8
SPEC
  6
CONTINUOUS
 62
     7
 10
800.0
 20
333.33375000000052
 30
0.0
 40
41.384990297559852
  0
LINE
  5
637
  8
SPEC
  6
CONTINUOUS
 62
     7
 10
754.88166644300645
 20
354.88191644300713
 30
0.0
 11
743.55488211441832
 21
366.20870077159532
 31
0.0
  0
ARC
  5
638
  8
SPEC
  6
CONTINUOUS
 62
     7
 10
741.66926874529952
 20
364.32308740247629
 30
0.0
 40
2.6666600000003151
 50
44.99999999999654
 51
152.01965505472131
  0
LINE
  5
639
  8
SPEC
  6
CONTINUOUS
 62
     7
 10
754.88166644300645
 20
311.7855835569934
 30
0.0
 11
743.5548821144115
 21
300.45879922839771
 31
0.0
  0
ARC
  5
63A
  8
SPEC
  6
CONTINUOUS
 62
     7
 10
741.66926874529236
 20
302.34441259751679
 30
0.0
 40
2.6666600000000158
 50
207.9803449452786
 51
314.99999999999642
  0
LINE
  5
63B
  8
SPEC
  6
CONTINUOUS
 62
     7
 10
778.45183355699282
 20
288.2154164430072
 30
0.0
 11
767.12504922840378
 21
276.88863211441787
 31
0.0
  0
ARC
  5
63C
  8
SPEC
  6
CONTINUOUS
 62
     7
 10
769.0106625975227
 20
275.0030187452989
 30
0.0
 40
2.6666600000003151
 50
135.0000000000035
 51
242.0196550547256
  0
LINE
  5
63D
  8
SPEC
  6
CONTINUOUS
 62
     7
 10
821.54816644300661
 20
288.2154164430076
 30
0.0
 11
832.87495077159952
 21
276.88863211441452
 31
0.0
  0
ARC
  5
63E
  8
SPEC
  6
CONTINUOUS
 62
     7
 10
830.98933740248037
 20
275.00301874529572
 30
0.0
 40
2.6666600000001242
 50
297.98034494528292
 51
44.999999999996568
  0
ARC
  5
63F
  8
SPEC
  6
CONTINUOUS
 62
     7
 10
800.0
 20
333.33375000000052
 30
0.0
 40
68.718255297559935
 50
152.01965505472339
 51
207.9803449452794
  0
ARC
  5
640
  8
SPEC
  6
CONTINUOUS
 62
     7
 10
800.0
 20
333.33375000000052
 30
0.0
 40
68.718255297559935
 50
242.01965505472299
 51
297.9803449452782
  0
LINE
  5
641
  8
SPEC
  6
CONTINUOUS
 62
     7
 10
790.00002499999982
 20
280.00055000000009
 30
0.0
 11
790.00002499999982
 21
284.34407761882397
 31
0.0
  0
LINE
  5
642
  8
SPEC
  6
CONTINUOUS
 62
     7
 10
780.0000500000001
 20
280.0005500000006
 30
0.0
 11
780.0000500000001
 21
287.50810761483461
 31
0.0
  0
LINE
  5
643
  8
SPEC
  6
CONTINUOUS
 62
     7
 10
819.99994999999944
 20
280.00055000000037
 30
0.0
 11
809.99997499999961
 21
280.00055000000009
 31
0.0
  0
LINE
  5
644
  8
SPEC
  6
CONTINUOUS
 62
     7
 10
809.99997499999961
 20
280.00055000000009
 30
0.0
 11
809.99997499999961
 21
284.34407761882397
 31
0.0
  0
LINE
  5
645
  8
SPEC
  6
CONTINUOUS
 62
     7
 10
819.99994999999944
 20
280.0005500000006
 30
0.0
 11
819.99994999999944
 21
287.50810761483461
 31
0.0
  0
LINE
  5
646
  8
SPEC
  6
CONTINUOUS
 62
     7
 10
780.0000500000001
 20
280.00055000000037
 30
0.0
 11
790.00002499999982
 21
280.00055000000009
 31
0.0
  0
TEXT
  5
647
  8
SPEC
 62
     7
 10
778.82839028007083
 20
300.0005000000001
 30
0.0
 40
20.624948437499992
  1
-
 41
0.8
 11
778.82839028007083
 21
320.62544843749998
 31
0.0
 73
     3
  0
TEXT
  5
648
  8
SPEC
 62
     7
 10
808.82831528007046
 20
300.0005000000001
 30
0.0
 40
20.624948437499992
  1
+
 41
0.8
 11
808.82831528007046
 21
320.62544843749998
 31
0.0
 73
     3
  0
LINE
  5
649
  8
SPEC
  6
CONTINUOUS
 62
     7
 10
785.00003749999985
 20
200.00075000000049
 30
0.0
 11
785.00003749999985
 21
280.00055000000009
 31
0.0
  0
TEXT
  5
64A
  8
SPEC
 62
     7
 10
741.29218266434191
 20
208.3340625000005
 30
0.0
 40
17.187457031249998
  1
BLK
 41
0.8
 11
741.29218266434191
 21
225.5215195312505
 31
0.0
 73
     3
  0
ARC
  5
64B
  8
SPEC
  6
CONTINUOUS
 62
     7
 10
769.01066259751951
 20
391.66448125470561
 30
0.0
 40
2.6666599999999101
 50
117.9803449452743
 51
225.0000000000035
  0
ARC
  5
64C
  8
SPEC
  6
CONTINUOUS
 62
     7
 10
830.98933740248344
 20
391.66448125470851
 30
0.0
 40
2.6666600000003151
 50
315.00000000000352
 51
62.019655054717042
  0
LINE
  5
64D
  8
SPEC
  6
CONTINUOUS
 62
     7
 10
700.0014999999994
 20
200.00075000000041
 30
0.0
 11
700.0014999999994
 21
333.33375000000052
 31
0.0
  0
LINE
  5
64E
  8
SPEC
  6
CONTINUOUS
 62
     7
 10
700.0014999999994
 20
200.00075000000049
 30
0.0
 11
785.00003749999985
 21
200.00075000000049
 31
0.0
  0
TEXT
  5
64F
  8
SPEC
 62
     7
 10
618.63907156102528
 20
341.6670625000001
 30
0.0
 40
17.187457031249998
  1
L.F.-
 41
0.8
 11
618.63907156102528
 21
358.85451953125011
 31
0.0
 73
     3
  0
LINE
  5
650
  8
SPEC
  6
CONTINUOUS
 62
     7
 10
600.0
 20
333.33375000000001
 30
0.0
 11
700.00149999999894
 21
333.33375000000001
 31
0.0
  0
ARC
  5
651
  8
SPEC
  6
CONTINUOUS
 62
     7
 10
729.26989476023164
 20
404.0638552397686
 30
0.0
 40
10.666639999999999
 50
93.136392395277724
 51
176.8636076047211
  0
TEXT
  5
652
  8
SPEC
 62
     7
 10
618.63907156102528
 20
408.33356250000031
 30
0.0
 40
17.187457031249998
  1
L.F.+
 41
0.8
 11
618.63907156102528
 21
425.52101953125032
 31
0.0
 73
     3
  0
LINE
  5
653
  8
SPEC
  6
CONTINUOUS
 62
     7
 10
600.0
 20
400.00025000000022
 30
0.0
 11
683.33487499999967
 21
400.00025000000022
 31
0.0
  0
LINE
  5
654
  8
SPEC
  6
CONTINUOUS
 62
     7
 10
718.35054603137257
 20
483.33337499999959
 30
0.0
 11
752.85966577202669
 21
483.33337499999959
 31
0.0
  0
CIRCLE
  5
655
  8
SPEC
  6
CONTINUOUS
 62
     7
 10
725.0001874999997
 20
500.0
 30
0.0
 40
2.6666599999998639
  0
LINE
  5
656
  8
SPEC
  6
CONTINUOUS
 62
     7
 10
790.00002500000028
 20
462.66676000000012
 30
0.0
 11
809.99997499999961
 21
462.66676000000012
 31
0.0
  0
LINE
  5
657
  8
SPEC
  6
CONTINUOUS
 62
     7
 10
790.00002500000028
 20
468.20210611436852
 30
0.0
 11
790.00002500000028
 21
462.66676000000012
 31
0.0
  0
LINE
  5
658
  8
SPEC
  6
CONTINUOUS
 62
     7
 10
809.99997499999961
 20
468.20210611436852
 30
0.0
 11
809.99997499999961
 21
462.66676000000012
 31
0.0
  0
TEXT
  5
659
  8
SPEC
 62
     7
 10
618.63907156102573
 20
475.00006250000001
 30
0.0
 40
17.187457031249998
  1
H.F.-
 41
0.8
 11
618.63907156102573
 21
492.18751953125002
 31
0.0
 73
     3
  0
LINE
  5
65A
  8
SPEC
  6
CONTINUOUS
 62
     7
 10
600.0
 20
466.66674999999969
 30
0.0
 11
800.0
 21
466.66674999999969
 31
0.0
  0
TEXT
  5
65B
  8
SPEC
 62
     7
 10
691.66700000000014
 20
441.66681249999971
 30
0.0
 40
17.187457031249998
  1
BLK
 41
0.8
 11
691.66700000000014
 21
458.8542695312496
 31
0.0
 73
     3
  0
TEXT
  5
65C
  8
SPEC
 62
     7
 10
747.91681250000045
 20
441.66681249999942
 30
0.0
 40
20.624948437499992
  1
-
 41
0.8
 11
747.91681250000045
 21
462.29176093749948
 31
0.0
 73
     3
  0
LINE
  5
65D
  8
SPEC
  6
CONTINUOUS
 62
     7
 10
683.33487499999967
 20
183.33325000000011
 30
0.0
 11
814.99996250000038
 21
183.33325000000011
 31
0.0
  0
LINE
  5
65E
  8
SPEC
  6
CONTINUOUS
 62
     7
 10
683.3348749999991
 20
183.33325000000039
 30
0.0
 11
683.33487499999967
 21
400.00025000000022
 31
0.0
  0
LINE
  5
65F
  8
SPEC
  6
CONTINUOUS
 62
     7
 10
814.99996249999879
 20
183.33325000000011
 30
0.0
 11
814.9999624999997
 21
280.00055000000009
 31
0.0
  0
ARC
  5
660
  8
SPEC
  6
CONTINUOUS
 62
     7
 10
858.33073125470241
 20
302.34441259752202
 30
0.0
 40
2.6666599999999931
 50
225.0000000000035
 51
332.01965505472123
  0
ARC
  5
661
  8
SPEC
  6
CONTINUOUS
 62
     7
 10
858.33073125470105
 20
364.3230874024776
 30
0.0
 40
2.6666599999999101
 50
27.98034494527435
 51
134.9999999999965
  0
ARC
  5
662
  8
SPEC
  6
CONTINUOUS
 62
     7
 10
800.0
 20
333.33375000000052
 30
0.0
 40
68.718255297559963
 50
332.01965505472248
 51
27.98034494527689
  0
CIRCLE
  5
663
  8
SPEC
  6
CONTINUOUS
 62
     7
 10
874.99981250000064
 20
500.0
 30
0.0
 40
2.6666599999998639
  0
ARC
  5
664
  8
SPEC
  6
CONTINUOUS
 62
     7
 10
-420.08028312499471
 20
333.3337500000008
 30
0.0
 40
1303.413408124994
 50
356.86360760472218
 51
3.1363923952778232
  0
TEXT
  5
665
  8
SPEC
 62
     7
 10
899.99974999999995
 20
369.99619211739281
 30
0.0
 40
16.113240966796869
  1
Driver
 41
0.8
 11
899.99974999999995
 21
386.10943308418967
 31
0.0
 73
     3
  0
TEXT
  5
666
  8
SPEC
 62
     7
 10
899.99974999999995
 20
350.00037500000047
 30
0.0
 40
16.113240966796869
  1
Low Freq
 41
0.8
 11
899.99974999999995
 21
366.11361596679728
 31
0.0
 73
     3
  0
TEXT
  5
667
  8
SPEC
 62
     7
 10
899.99974999999995
 20
483.33337499999959
 30
0.0
 40
16.113240966796869
  1
High Freq
 41
0.8
 11
899.99974999999995
 21
499.44661596679663
 31
0.0
 73
     3
  0
TEXT
  5
668
  8
SPEC
 62
     7
 10
899.99974999999995
 20
463.33755788260783
 30
0.0
 40
16.113240966796869
  1
13mm
 41
0.8
 11
899.99974999999995
 21
479.45079884940469
 31
0.0
 73
     3
  0
TEXT
  5
669
  8
SPEC
 62
     7
 10
899.99974999999995
 20
330.00455788260859
 30
0.0
 40
16.113240966796869
  1
88mm
 41
0.8
 11
899.99974999999995
 21
346.11779884940552
 31
0.0
 73
     3
  0
LINE
  5
66A
  8
SPEC
  6
STYLE_12
 62
     7
 10
474.9999999999996
 20
533.33325000000059
 30
0.0
 11
600.0
 21
533.33325000000002
 31
0.0
  0
LINE
  5
66B
  8
SPEC
  6
CONTINUOUS
 62
     7
 10
474.9999999999996
 20
549.99987500000066
 30
0.0
 11
600.0
 21
549.99987500000066
 31
0.0
  0
LINE
  5
66C
  8
SPEC
  6
CONTINUOUS
 62
     7
 10
225.0
 20
566.66650000000004
 30
0.0
 11
400.0
 21
566.66650000000004
 31
0.0
  0
TEXT
  5
66D
  8
SPEC
 62
     7
 10
237.1338056563219
 20
536.71236588541672
 30
0.0
 40
16.93333333333333
  1
ソニックガード
 41
0.8
 11
237.1338056563219
 21
553.64569921875
 31
0.0
 73
     3
  0
CIRCLE
  5
66E
  8
SPEC
  6
CONTINUOUS
 62
     7
 10
433.33274999999958
 20
533.33324999999945
 30
0.0
 40
3.515616210937424
  0
LINE
  5
66F
  8
SPEC
  6
CONTINUOUS
 62
     7
 10
400.0
 20
533.33325000000002
 30
0.0
 11
474.9999999999996
 21
533.33325000000002
 31
0.0
  0
TEXT
  5
670
  8
SPEC
 62
     7
 10
290.05047232298853
 20
513.58742369791628
 30
0.0
 40
16.93333333333333
  1
回路
 41
0.8
 11
290.05047232298853
 21
530.52075703124967
 31
0.0
 73
     3
  0
LINE
  5
671
  8
SPEC
  6
CONTINUOUS
 62
     7
 10
850.0
 20
621.78177250003137
 30
0.0
 11
850.0
 21
1371.7800850000001
 31
0.0
  0
LINE
  5
672
  8
SPEC
  6
CONTINUOUS
 62
     7
 10
847.1403342279732
 20
516.66662499999984
 30
0.0
 11
881.64945396862731
 21
516.66662499999984
 31
0.0
  0
TEXT
  5
673
  8
SPEC
 62
     7
 10
747.91681250000011
 20
541.66656249999949
 30
0.0
 40
20.624948437499992
  1
+
 41
0.8
 11
747.91681250000011
 21
562.29151093749965
 31
0.0
 73
     3
  0
TEXT
  5
674
  8
SPEC
 62
     7
 10
691.6669999999998
 20
541.66656249999949
 30
0.0
 40
17.187457031249998
  1
BLUE
 41
0.8
 11
691.6669999999998
 21
558.85401953124961
 31
0.0
 73
     3
  0
LINE
  5
675
  8
SPEC
  6
CONTINUOUS
 62
     7
 10
718.35054603137257
 20
516.66662499999984
 30
0.0
 11
752.85966577202669
 21
516.66662499999984
 31
0.0
  0
LINE
  5
676
  8
SPEC
  6
CONTINUOUS
 62
     7
 10
790.00002500000028
 20
537.33323999999971
 30
0.0
 11
809.99997499999961
 21
537.33323999999971
 31
0.0
  0
LINE
  5
677
  8
SPEC
  6
CONTINUOUS
 62
     7
 10
790.00002500000028
 20
531.7978938856312
 30
0.0
 11
790.00002500000028
 21
537.33323999999971
 31
0.0
  0
LINE
  5
678
  8
SPEC
  6
CONTINUOUS
 62
     7
 10
809.99997499999961
 20
531.7978938856312
 30
0.0
 11
809.99997499999961
 21
537.33323999999971
 31
0.0
  0
TEXT
  5
679
  8
SPEC
 62
     7
 10
618.63907156102573
 20
541.66656250000005
 30
0.0
 40
17.187457031249998
  1
H.F.+
 41
0.8
 11
618.63907156102573
 21
558.85401953124995
 31
0.0
 73
     3
  0
LINE
  5
67A
  8
SPEC
  6
CONTINUOUS
 62
     7
 10
600.0
 20
533.33325000000002
 30
0.0
 11
800.0
 21
533.33325000000002
 31
0.0
  0
TEXT
  5
67B
  8
SPEC
 62
     7
 10
-391.0008124999992
 20
1342.5667230832239
 30
0.0
 40
19.75555555555556
  1
2Wayハイインピーダンス　スピーカ (Ultra-Compact Indoor/Outdoor Background/Foreground Speaker)
 41
0.75
 11
-391.0008124999992
 21
1362.3222786387801
 31
0.0
 73
     3
  0
TEXT
  5
67C
  8
SPEC
 62
     7
 10
-716.0
 20
742.56672308322482
 30
0.0
 40
19.75555555555556
  1
可変振り角度（スピーカ）
 41
0.8
 11
-716.0
 21
762.32227863878029
 31
0.0
 73
     3
  0
TEXT
  5
67D
  8
SPEC
 62
     7
 10
-716.0000000000008
 20
780.06681683322449
 30
0.0
 40
19.75555555555556
  1
コネクター
 41
0.8
 11
-716.0000000000008
 21
799.8223723887802
 31
0.0
 73
     3
  0
TEXT
  5
67E
  8
SPEC
 62
     7
 10
-716.0000000000008
 20
705.06681683322449
 30
0.0
 40
19.75555555555556
  1
寸法
 41
0.8
 11
-716.0000000000008
 21
724.8223723887802
 31
0.0
 73
     3
  0
TEXT
  5
67F
  8
SPEC
 62
     7
 10
-716.0
 20
667.56672308322459
 30
0.0
 40
19.75555555555556
  1
重量
 41
0.8
 11
-716.0
 21
687.32227863878018
 31
0.0
 73
     3
  0
TEXT
  5
680
  8
SPEC
 62
     7
 10
-716.0000000000008
 20
630.06681683322449
 30
0.0
 40
19.75555555555556
  1
付属品
 41
0.8
 11
-716.0000000000008
 21
649.8223723887802
 31
0.0
 73
     3
  0
TEXT
  5
681
  8
SPEC
 62
     7
 10
-716.0
 20
817.56672308322482
 30
0.0
 40
19.75555555555556
  1
メンテナンス
 41
0.8
 11
-716.0
 21
837.3222786387804
 31
0.0
 73
     3
  0
TEXT
  5
682
  8
SPEC
 62
     7
 10
-716.0000000000008
 20
855.06681683322449
 30
0.0
 40
19.75555555555556
  1
極性
 41
0.8
 11
-716.0000000000008
 21
874.8223723887802
 31
0.0
 73
     3
  0
TEXT
  5
683
  8
SPEC
 62
     7
 10
-716.0000000000008
 20
1305.066816833224
 30
0.0
 40
19.75555555555556
  1
周波数レンジ (-10dB)
 41
0.8
 11
-716.0000000000008
 21
1324.82237238878
 31
0.0
 73
     3
  0
TEXT
  5
684
  8
SPEC
 62
     7
 10
-716.0
 20
1342.5667230832239
 30
0.0
 40
19.75555555555556
  1
形式
 41
0.8
 11
-716.0
 21
1362.3222786387801
 31
0.0
 73
     3
  0
TEXT
  5
685
  8
SPEC
 62
     7
 10
-716.0
 20
1267.566723083225
 30
0.0
 40
19.75555555555556
  1
公称カバレージ
 41
0.8
 11
-716.0
 21
1287.3222786387801
 31
0.0
 73
     3
  0
TEXT
  5
686
  8
SPEC
 62
     7
 10
-716.0000000000008
 20
1230.066816833224
 30
0.0
 40
19.75555555555556
  1
低域ユニット
 41
0.8
 11
-716.0000000000008
 21
1249.82237238878
 31
0.0
 73
     3
  0
TEXT
  5
687
  8
SPEC
 62
     7
 10
-716.0
 20
1192.566723083225
 30
0.0
 40
19.75555555555556
  1
高域ユニット
 41
0.8
 11
-716.0
 21
1212.3222786387801
 31
0.0
 73
     3
  0
TEXT
  5
688
  8
SPEC
 62
     7
 10
-716.0000000000008
 20
1155.066816833224
 30
0.0
 40
19.75555555555556
  1
音圧レベル (1W/1m)
 41
0.8
 11
-716.0000000000008
 21
1174.82237238878
 31
0.0
 73
     3
  0
TEXT
  5
689
  8
SPEC
 62
     7
 10
-716.0000000000008
 20
1080.066816833224
 30
0.0
 40
19.75555555555556
  1
入力
 41
0.8
 11
-716.0000000000008
 21
1099.82237238878
 31
0.0
 73
     3
  0
TEXT
  5
68A
  8
SPEC
 62
     7
 10
-716.0000000000008
 20
1005.066816833224
 30
0.0
 40
19.75555555555556
  1
クロスオーバー
 41
0.8
 11
-716.0000000000008
 21
1024.82237238878
 31
0.0
 73
     3
  0
TEXT
  5
68B
  8
SPEC
 62
     7
 10
-716.0
 20
967.56672308322482
 30
0.0
 40
19.75555555555556
  1
耐候性規格
 41
0.8
 11
-716.0
 21
987.3222786387804
 31
0.0
 73
     3
  0
TEXT
  5
68C
  8
SPEC
 62
     7
 10
-716.0000000000008
 20
930.06681683322449
 30
0.0
 40
19.75555555555556
  1
外装色
 41
0.8
 11
-716.0000000000008
 21
949.8223723887802
 31
0.0
 73
     3
  0
TEXT
  5
68D
  8
SPEC
 62
     7
 10
-391.0008124999992
 20
817.56672308322482
 30
0.0
 40
19.75555555555556
  1
SPユニットは前面側で交換
 41
0.8
 11
-391.0008124999992
 21
837.3222786387804
 31
0.0
 73
     3
  0
TEXT
  5
68E
  8
SPEC
 62
     7
 10
-391.0008124999992
 20
742.56672308322482
 30
0.0
 40
19.75555555555556
  1
横方向 : 44゜ , 縦方向 : 37゜
 41
0.8
 11
-391.0008124999992
 21
762.32227863878029
 31
0.0
 73
     3
  0
TEXT
  5
68F
  8
SPEC
 62
     7
 10
-391.0008124999992
 20
855.06681683322449
 30
0.0
 40
19.75555555555556
  1
正相 (低域) , 正相 (高域)
 41
0.8
 11
-391.0008124999992
 21
874.8223723887802
 31
0.0
 73
     3
  0
TEXT
  5
690
  8
SPEC
 62
     7
 10
-391.0008124999992
 20
780.06681683322449
 30
0.0
 40
19.75555555555556
  1
プッシュ式ターミナル
 41
0.8
 11
-391.0008124999992
 21
799.8223723887802
 31
0.0
 73
     3
  0
TEXT
  5
691
  8
SPEC
 62
     7
 10
-391.0008124999992
 20
705.06681683322449
 30
0.0
 40
19.75555555555556
  1
140(W)×191(H)×112(D)mm
 41
0.8
 11
-391.0008124999992
 21
724.8223723887802
 31
0.0
 73
     3
  0
TEXT
  5
692
  8
SPEC
 62
     7
 10
-391.0008124999992
 20
667.56672308322459
 30
0.0
 40
19.75555555555556
  1
約1.8kg
 41
0.8
 11
-391.0008124999992
 21
687.32227863878018
 31
0.0
 73
     3
  0
TEXT
  5
693
  8
SPEC
 62
     7
 10
-391.0008124999992
 20
967.56672308322482
 30
0.0
 40
19.75555555555556
  1
Mil-Std 810 , IPX4 Per IEC 529 (全天候型)
 41
0.8
 11
-391.0008124999992
 21
987.3222786387804
 31
0.0
 73
     3
  0
TEXT
  5
694
  8
SPEC
 62
     7
 10
-391.0008124999992
 20
1230.066816833224
 30
0.0
 40
19.75555555555556
  1
88mm (口径 : 3.5インチ)
 41
0.8
 11
-391.0008124999992
 21
1249.82237238878
 31
0.0
 73
     3
  0
TEXT
  5
695
  8
SPEC
 62
     7
 10
-391.0008124999992
 20
1192.566723083225
 30
0.0
 40
19.75555555555556
  1
13mm (ダイアフラム径 : 0.5インチ)
 41
0.8
 11
-391.0008124999992
 21
1212.3222786387801
 31
0.0
 73
     3
  0
TEXT
  5
696
  8
SPEC
 62
     7
 10
-391.0008124999992
 20
1155.066816833224
 30
0.0
 40
19.75555555555556
  1
70.7V INPUT ---89dB SPL
 41
0.8
 11
-391.0008124999992
 21
1174.82237238878
 31
0.0
 73
     3
  0
TEXT
  5
697
  8
SPEC
 62
     7
 10
-391.0008124999992
 20
1123.066816833224
 30
0.0
 40
19.75555555555556
  1
100V INPUT ---92dB SPL
 41
0.8
 11
-391.0008124999992
 21
1142.82237238878
 31
0.0
 73
     3
  0
TEXT
  5
698
  8
SPEC
 62
     7
 10
-391.0008124999992
 20
1080.066816833224
 30
0.0
 40
19.75555555555556
  1
70.7V INPUT ---5W
 41
0.8
 11
-391.0008124999992
 21
1099.82237238878
 31
0.0
 73
     3
  0
TEXT
  5
699
  8
SPEC
 62
     7
 10
-391.0008124999992
 20
1048.0668168332249
 30
0.0
 40
19.75555555555556
  1
100V INPUT ---10W
 41
0.8
 11
-391.0008124999992
 21
1067.82237238878
 31
0.0
 73
     3
  0
TEXT
  5
69A
  8
SPEC
 62
     7
 10
-391.0008124999992
 20
898.06681683322449
 30
0.0
 40
19.75555555555556
  1
CONTROL 23T-WH: 白
 41
0.8
 11
-391.0008124999992
 21
917.8223723887802
 31
0.0
 73
     3
  0
TEXT
  5
69B
  8
SPEC
 62
     7
 10
-391.0008124999992
 20
930.06681683322449
 30
0.0
 40
19.75555555555556
  1
CONTROL 23T: 黒
 41
0.8
 11
-391.0008124999992
 21
949.8223723887802
 31
0.0
 73
     3
  0
TEXT
  5
69C
  8
SPEC
 62
     7
 10
-391.0008124999992
 20
1005.066816833224
 30
0.0
 40
19.75555555555556
  1
3.5kHz
 41
0.8
 11
-391.0008124999992
 21
1024.82237238878
 31
0.0
 73
     3
  0
TEXT
  5
69D
  8
SPEC
 62
     7
 10
-391.0008124999992
 20
1267.566723083225
 30
0.0
 40
19.75555555555556
  1
90゜×90゜
 41
0.8
 11
-391.0008124999992
 21
1287.3222786387801
 31
0.0
 73
     3
  0
TEXT
  5
69E
  8
SPEC
 62
     7
 10
-391.0008124999992
 20
1305.066816833224
 30
0.0
 40
19.75555555555556
  1
100Hz～21kHz
 41
0.8
 11
-391.0008124999992
 21
1324.82237238878
 31
0.0
 73
     3
  0
LINE
  5
69F
  8
SPEC
  6
CONTINUOUS
 62
     7
 10
-725.00018750000515
 20
959.28092875002278
 30
0.0
 11
850.00000000000034
 21
959.28092875002108
 31
0.0
  0
LINE
  5
6A0
  8
SPEC
  6
CONTINUOUS
 62
     7
 10
-725.00018750000015
 20
621.78177250003137
 30
0.0
 11
850.0
 21
621.78177250003137
 31
0.0
  0
LINE
  5
6A1
  8
SPEC
  6
CONTINUOUS
 62
     7
 10
-50.000000000000469
 20
533.33325000000002
 30
0.0
 11
50.0
 21
533.33324999999991
 31
0.0
  0
LINE
  5
6A2
  8
SPEC
  6
CONTINUOUS
 62
     7
 10
-50.000000000000469
 20
333.3337500000012
 30
0.0
 11
50.0
 21
333.33324999999968
 31
0.0
  0
TEXT
  5
6A3
  8
SPEC
 62
     7
 10
-83.333249999999708
 20
433.33350000000007
 30
0.0
 40
20.624948437499992
  1
INPUT
 41
0.8
 11
-83.333249999999708
 21
453.95844843750012
 31
0.0
 73
     3
  0
LINE
  5
6A4
  8
SPEC
  6
CONTINUOUS
 62
     7
 10
-68.750000000000014
 20
342.70875000000149
 30
0.0
 11
-50.000000000000469
 21
333.3337500000012
 31
0.0
  0
LINE
  5
6A5
  8
SPEC
  6
CONTINUOUS
 62
     7
 10
-68.750000000000014
 20
323.9587500000012
 30
0.0
 11
-50.000000000000469
 21
333.3337500000012
 31
0.0
  0
LINE
  5
6A6
  8
SPEC
  6
CONTINUOUS
 62
     7
 10
-108.33318750000031
 20
333.3337500000012
 30
0.0
 11
-91.666562500000069
 21
333.3337500000012
 31
0.0
  0
LINE
  5
6A7
  8
SPEC
  6
CONTINUOUS
 62
     7
 10
-68.750000000000014
 20
542.70825000000025
 30
0.0
 11
-50.000000000000469
 21
533.33325000000002
 31
0.0
  0
LINE
  5
6A8
  8
SPEC
  6
CONTINUOUS
 62
     7
 10
-68.750000000000014
 20
523.95825000000002
 30
0.0
 11
-50.000000000000469
 21
533.33325000000002
 31
0.0
  0
LINE
  5
6A9
  8
SPEC
  6
CONTINUOUS
 62
     7
 10
-108.33318750000031
 20
533.33325000000002
 30
0.0
 11
-91.666562500000069
 21
533.33325000000002
 31
0.0
  0
LINE
  5
6AA
  8
SPEC
  6
CONTINUOUS
 62
     7
 10
-99.999874999999534
 20
524.99993749999987
 30
0.0
 11
-99.999874999999534
 21
541.66656250000017
 31
0.0
  0
POLYLINE
  5
6AB
  8
SPEC
  6
CONTINUOUS
 62
     7
 66
     1
 10
0.0
 20
0.0
 30
0.0
 70
     1
  0
VERTEX
  5
9C1
  8
SPEC
  6
CONTINUOUS
 62
     7
 10
50.0
 20
583.33324999999979
 30
0.0
  0
VERTEX
  5
9C2
  8
SPEC
  6
CONTINUOUS
 62
     7
 10
150.0
 20
583.33324999999979
 30
0.0
  0
VERTEX
  5
9C3
  8
SPEC
  6
CONTINUOUS
 62
     7
 10
150.0
 20
283.33324999999968
 30
0.0
  0
VERTEX
  5
9C4
  8
SPEC
  6
CONTINUOUS
 62
     7
 10
50.0
 20
283.33324999999968
 30
0.0
  0
SEQEND
  5
9C5
  8
SPEC
  6
CONTINUOUS
 62
     7
  0
LINE
  5
6B1
  8
SPEC
  6
CONTINUOUS
 62
     7
 10
150.0
 20
333.33324999999968
 30
0.0
 11
474.9999999999996
 21
333.33324999999968
 31
0.0
  0
LINE
  5
6B2
  8
SPEC
  6
CONTINUOUS
 62
     7
 10
150.0
 20
533.33324999999991
 30
0.0
 11
225.0
 21
533.33324999999957
 31
0.0
  0
TEXT
  5
6B3
  8
SPEC
 62
     7
 10
57.031357421875008
 20
558.33324999999979
 30
0.0
 40
17.187457031249998
  1
トランス
 41
0.8
 11
57.031357421875008
 21
575.5207070312498
 31
0.0
 73
     3
  0
TEXT
  5
6B4
  8
SPEC
 62
     7
 10
-391.0008124999992
 20
630.06681683322449
 30
0.0
 40
19.75555555555556
  1
Invisiball取付金具(壁用 1本:約40g),六角レンチ
 41
0.8
 11
-391.0008124999992
 21
649.8223723887802
 31
0.0
 73
     3
  0
TEXT
  5
6B5
  8
DIMNSIONS
 62
     7
 10
-736.66666666666652
 20
-430.25337666666678
 30
0.0
 40
22.577777777777769
  1
可変振り角度（スピーカ）横方向
 41
0.8
 11
-736.66666666666652
 21
-407.675598888889
 31
0.0
 73
     3
  0
TEXT
  5
6B6
  8
DIMNSIONS
 62
     7
 10
-425.0
 20
-705.25337666666678
 30
0.0
 40
22.577777777777769
  1
可変振り角度
 41
0.8
 11
-425.0
 21
-682.675598888889
 31
0.0
 73
     3
  0
TEXT
  5
6B7
  8
DIMNSIONS
 62
     7
 10
-435.29974999999979
 20
-744.61391055555555
 30
0.0
 40
22.577777777777769
  1
（スピーカ）縦方向
 41
0.8
 11
-435.29974999999979
 21
-722.03613277777777
 31
0.0
 73
     3
  0
TEXT
  5
6B8
  8
DIMNSIONS
 62
     7
 10
-50.001875000000069
 20
-1015.713946249999
 30
0.0
 40
21.484321289062489
  1
(単位 : mm)
 41
0.8
 11
-50.001875000000069
 21
-994.22962496093749
 31
0.0
 73
     3
  0
LINE
  5
6B9
  8
DIMNSIONS
  6
CONTINUOUS
 62
     7
 10
-590.24975000000006
 20
294.78671000000043
 30
0.0
 11
-670.0
 21
294.78671000000043
 31
0.0
  0
LINE
  5
6BA
  8
DIMNSIONS
  6
CONTINUOUS
 62
     7
 10
-609.99975000000006
 20
346.7867100000006
 30
0.0
 11
-670.0
 21
346.7867100000006
 31
0.0
  0
LINE
  5
6BB
  8
DIMNSIONS
 62
     7
 10
-650.0
 20
294.78671000000043
 30
0.0
 11
-656.7003979515024
 21
319.79293558593793
 31
0.0
  0
LINE
  5
6BC
  8
DIMNSIONS
 62
     7
 10
-650.0
 20
294.78671000000043
 30
0.0
 11
-643.2996020484976
 21
319.79293558593793
 31
0.0
  0
LINE
  5
6BD
  8
DIMNSIONS
 62
     7
 10
-650.0
 20
346.7867100000006
 30
0.0
 11
-643.2996020484976
 21
321.78048441406321
 31
0.0
  0
LINE
  5
6BE
  8
DIMNSIONS
 62
     7
 10
-650.0
 20
346.7867100000006
 30
0.0
 11
-656.7003979515024
 21
321.78048441406321
 31
0.0
  0
LINE
  5
6BF
  8
DIMNSIONS
  6
CONTINUOUS
 62
     7
 10
-650.0
 20
294.78671000000043
 30
0.0
 11
-650.0
 21
346.7867100000006
 31
0.0
  0
TEXT
  5
6C0
  8
DIMNSIONS
 62
     7
 10
-662.05555555555543
 20
303.14782111111163
 30
0.0
 40
28.222222222222221
  1
52
 50
90.0
 41
0.8
 11
-690.27777777777771
 21
303.14782111111163
 31
0.0
 73
     3
  0
LINE
  5
6C1
  8
DIMNSIONS
  6
CONTINUOUS
 62
     7
 10
-609.99975000000006
 20
245.2867100000004
 30
0.0
 11
-670.0
 21
245.2867100000004
 31
0.0
  0
LINE
  5
6C2
  8
DIMNSIONS
  6
CONTINUOUS
 62
     7
 10
-609.99975000000006
 20
171.7867100000004
 30
0.0
 11
-670.0
 21
171.7867100000004
 31
0.0
  0
LINE
  5
6C3
  8
DIMNSIONS
 62
     7
 10
-650.0
 20
245.2867100000004
 30
0.0
 11
-643.2996020484976
 21
220.2804844140629
 31
0.0
  0
LINE
  5
6C4
  8
DIMNSIONS
 62
     7
 10
-650.0
 20
245.2867100000004
 30
0.0
 11
-656.7003979515024
 21
220.2804844140629
 31
0.0
  0
LINE
  5
6C5
  8
DIMNSIONS
 62
     7
 10
-650.0
 20
171.7867100000004
 30
0.0
 11
-656.7003979515024
 21
196.7929355859379
 31
0.0
  0
LINE
  5
6C6
  8
DIMNSIONS
 62
     7
 10
-650.0
 20
171.7867100000004
 30
0.0
 11
-643.2996020484976
 21
196.7929355859379
 31
0.0
  0
LINE
  5
6C7
  8
DIMNSIONS
  6
CONTINUOUS
 62
     7
 10
-650.0
 20
245.2867100000004
 30
0.0
 11
-650.0
 21
171.7867100000004
 31
0.0
  0
TEXT
  5
6C8
  8
DIMNSIONS
 62
     7
 10
-662.05555555555543
 20
173.2589322222226
 30
0.0
 40
28.222222222222221
  1
73.5
 50
90.0
 41
0.8
 11
-690.27777777777771
 21
173.2589322222226
 31
0.0
 73
     3
  0
LINE
  5
6C9
  8
DIMNSIONS
  6
CONTINUOUS
 62
     7
 10
-599.99975000000006
 20
161.7867100000004
 30
0.0
 11
-599.99975000000006
 21
80.000000000000099
 31
0.0
  0
LINE
  5
6CA
  8
DIMNSIONS
  6
CONTINUOUS
 62
     7
 10
-560.49975000000018
 20
161.7867100000004
 30
0.0
 11
-560.49975000000018
 21
80.000000000000099
 31
0.0
  0
LINE
  5
6CB
  8
DIMNSIONS
  6
CONTINUOUS
 62
     7
 10
-560.49975000000018
 20
100.0000000000001
 30
0.0
 11
-599.99975000000006
 21
100.0000000000001
 31
0.0
  0
LINE
  5
6CC
  8
DIMNSIONS
 62
     7
 10
-599.99975000000006
 20
100.0000000000001
 30
0.0
 11
-625.00597558593768
 21
93.299602048497675
 31
0.0
  0
LINE
  5
6CD
  8
DIMNSIONS
 62
     7
 10
-599.99975000000006
 20
100.0000000000001
 30
0.0
 11
-625.00597558593768
 21
106.7003979515025
 31
0.0
  0
LINE
  5
6CE
  8
DIMNSIONS
  6
CONTINUOUS
 62
     7
 10
-599.99975000000006
 20
100.0000000000001
 30
0.0
 11
-708.2909942053243
 21
100.0000000000001
 31
0.0
  0
LINE
  5
6CF
  8
DIMNSIONS
 62
     7
 10
-560.49975000000018
 20
100.0000000000001
 30
0.0
 11
-535.49352441406268
 21
106.7003979515025
 31
0.0
  0
LINE
  5
6D0
  8
DIMNSIONS
 62
     7
 10
-560.49975000000018
 20
100.0000000000001
 30
0.0
 11
-535.49352441406268
 21
93.299602048497675
 31
0.0
  0
LINE
  5
6D1
  8
DIMNSIONS
  6
CONTINUOUS
 62
     7
 10
-560.49975000000018
 20
100.0000000000001
 30
0.0
 11
-510.49975000000018
 21
100.0000000000001
 31
0.0
  0
TEXT
  5
6D2
  8
DIMNSIONS
 62
     7
 10
-708.2909942053243
 20
112.0555555555556
 30
0.0
 40
28.222222222222221
  1
39.5
 41
0.8
 11
-708.2909942053243
 21
140.2777777777778
 31
0.0
 73
     3
  0
LINE
  5
6D3
  8
DIMNSIONS
 62
     7
 10
-379.0276966124585
 20
175.36392171243199
 30
0.0
 11
-364.72598930172808
 21
155.6793103380721
 31
0.0
  0
LINE
  5
6D4
  8
DIMNSIONS
 62
     7
 10
-379.0276966124585
 20
175.36392171243199
 30
0.0
 11
-376.48436045105609
 21
151.1656945432471
 31
0.0
  0
LINE
  5
6D5
  8
DIMNSIONS
  6
CONTINUOUS
 62
     7
 10
-379.0276966124585
 20
175.36392171243199
 30
0.0
 11
-350.0
 21
100.0000000000001
 31
0.0
  0
LINE
  5
6D6
  8
DIMNSIONS
  6
CONTINUOUS
 62
     7
 10
-350.0
 20
100.0000000000001
 30
0.0
 11
-166.52777777777769
 21
100.0000000000001
 31
0.0
  0
TEXT
  5
6D7
  8
DIMNSIONS
 62
     7
 10
-290.0
 20
112.0555555555556
 30
0.0
 40
28.222222222222221
  1
2-φ6.8
 41
0.8
 11
-290.0
 21
140.2777777777778
 31
0.0
 73
     3
  0
LINE
  5
6D8
  8
DIMNSIONS
  6
CONTINUOUS
 62
     7
 10
-399.99975000000012
 20
255.2867100000006
 30
0.0
 11
-399.99975000000012
 21
288.88641055555593
 31
0.0
  0
LINE
  5
6D9
  8
DIMNSIONS
  6
CONTINUOUS
 62
     7
 10
-380.24975000000012
 20
248.5367100000004
 30
0.0
 11
-380.24975000000012
 21
288.88641055555593
 31
0.0
  0
LINE
  5
6DA
  8
DIMNSIONS
  6
CONTINUOUS
 62
     7
 10
-380.24975000000012
 20
268.88641055555593
 30
0.0
 11
-399.99975000000012
 21
268.88641055555593
 31
0.0
  0
LINE
  5
6DB
  8
DIMNSIONS
 62
     7
 10
-399.99975000000012
 20
268.88641055555593
 30
0.0
 11
-425.00597558593768
 21
262.18601260405342
 31
0.0
  0
LINE
  5
6DC
  8
DIMNSIONS
 62
     7
 10
-399.99975000000012
 20
268.88641055555593
 30
0.0
 11
-425.00597558593768
 21
275.58680850705838
 31
0.0
  0
LINE
  5
6DD
  8
DIMNSIONS
  6
CONTINUOUS
 62
     7
 10
-399.99975000000012
 20
268.88641055555593
 30
0.0
 11
-513.19444444444434
 21
268.88641055555593
 31
0.0
  0
LINE
  5
6DE
  8
DIMNSIONS
 62
     7
 10
-380.24975000000012
 20
268.88641055555593
 30
0.0
 11
-355.24352441406262
 21
275.58680850705832
 31
0.0
  0
LINE
  5
6DF
  8
DIMNSIONS
 62
     7
 10
-380.24975000000012
 20
268.88641055555593
 30
0.0
 11
-355.24352441406262
 21
262.18601260405359
 31
0.0
  0
LINE
  5
6E0
  8
DIMNSIONS
  6
CONTINUOUS
 62
     7
 10
-380.24975000000012
 20
268.88641055555593
 30
0.0
 11
-330.24975000000012
 21
268.88641055555593
 31
0.0
  0
TEXT
  5
6E1
  8
DIMNSIONS
 62
     7
 10
-513.19444444444412
 20
280.94196611111141
 30
0.0
 40
28.222222222222221
  1
19.75
 41
0.8
 11
-513.19444444444412
 21
309.1641883333337
 31
0.0
 73
     3
  0
LINE
  5
6E2
  8
DIMNSIONS
  6
CONTINUOUS
 62
     7
 10
-360.49975000000012
 20
255.2867100000006
 30
0.0
 11
-360.49975000000012
 21
345.0
 31
0.0
  0
LINE
  5
6E3
  8
DIMNSIONS
  6
CONTINUOUS
 62
     7
 10
-399.99975000000012
 20
255.2867100000006
 30
0.0
 11
-399.99975000000012
 21
345.0
 31
0.0
  0
LINE
  5
6E4
  8
DIMNSIONS
  6
CONTINUOUS
 62
     7
 10
-399.99975000000012
 20
325.0
 30
0.0
 11
-360.49975000000012
 21
325.0
 31
0.0
  0
LINE
  5
6E5
  8
DIMNSIONS
 62
     7
 10
-360.49975000000012
 20
325.0
 30
0.0
 11
-335.49352441406268
 21
331.70039795150251
 31
0.0
  0
LINE
  5
6E6
  8
DIMNSIONS
 62
     7
 10
-360.49975000000012
 20
325.0
 30
0.0
 11
-335.49352441406268
 21
318.29960204849772
 31
0.0
  0
LINE
  5
6E7
  8
DIMNSIONS
  6
CONTINUOUS
 62
     7
 10
-360.49975000000012
 20
325.0
 30
0.0
 11
-310.49975000000012
 21
325.0
 31
0.0
  0
LINE
  5
6E8
  8
DIMNSIONS
 62
     7
 10
-399.99975000000012
 20
325.0
 30
0.0
 11
-425.00597558593768
 21
318.29960204849772
 31
0.0
  0
LINE
  5
6E9
  8
DIMNSIONS
 62
     7
 10
-399.99975000000012
 20
325.0
 30
0.0
 11
-425.00597558593768
 21
331.70039795150251
 31
0.0
  0
LINE
  5
6EA
  8
DIMNSIONS
  6
CONTINUOUS
 62
     7
 10
-399.99975000000012
 20
325.0
 30
0.0
 11
-449.99975000000012
 21
325.0
 31
0.0
  0
TEXT
  5
6EB
  8
DIMNSIONS
 62
     7
 10
-415.52752777777789
 20
352.05555555555549
 30
0.0
 40
28.222222222222221
  1
39.5
 41
0.8
 11
-415.52752777777789
 21
380.27777777777771
 31
0.0
 73
     3
  0
LINE
  5
6EC
  8
DIMNSIONS
  6
CONTINUOUS
 62
     7
 10
-370.24975000000012
 20
238.5367100000004
 30
0.0
 11
-280.0
 21
238.5367100000004
 31
0.0
  0
LINE
  5
6ED
  8
DIMNSIONS
  6
CONTINUOUS
 62
     7
 10
-370.24975000000012
 20
178.5367100000004
 30
0.0
 11
-280.0
 21
178.5367100000004
 31
0.0
  0
LINE
  5
6EE
  8
DIMNSIONS
 62
     7
 10
-300.0
 20
238.5367100000004
 30
0.0
 11
-293.2996020484976
 21
213.5304844140629
 31
0.0
  0
LINE
  5
6EF
  8
DIMNSIONS
 62
     7
 10
-300.0
 20
238.5367100000004
 30
0.0
 11
-306.70039795150228
 21
213.5304844140629
 31
0.0
  0
LINE
  5
6F0
  8
DIMNSIONS
 62
     7
 10
-300.0
 20
178.5367100000004
 30
0.0
 11
-306.70039795150228
 21
203.5429355859379
 31
0.0
  0
LINE
  5
6F1
  8
DIMNSIONS
 62
     7
 10
-300.0
 20
178.5367100000004
 30
0.0
 11
-293.2996020484976
 21
203.5429355859379
 31
0.0
  0
LINE
  5
6F2
  8
DIMNSIONS
  6
CONTINUOUS
 62
     7
 10
-300.0
 20
238.5367100000004
 30
0.0
 11
-300.0
 21
178.5367100000004
 31
0.0
  0
TEXT
  5
6F3
  8
DIMNSIONS
 62
     7
 10
-312.0555555555556
 20
190.89782111111151
 30
0.0
 40
28.222222222222221
  1
60
 50
90.0
 41
0.8
 11
-340.27777777777783
 21
190.89782111111151
 31
0.0
 73
     3
  0
LINE
  5
6F4
  8
DIMNSIONS
  6
CONTINUOUS
 62
     7
 10
-350.49975000000012
 20
245.28671000000051
 30
0.0
 11
-205.0
 21
245.28671000000051
 31
0.0
  0
LINE
  5
6F5
  8
DIMNSIONS
  6
CONTINUOUS
 62
     7
 10
-350.49975000000012
 20
171.7867100000004
 30
0.0
 11
-205.0
 21
171.7867100000004
 31
0.0
  0
LINE
  5
6F6
  8
DIMNSIONS
 62
     7
 10
-225.0
 20
245.28671000000051
 30
0.0
 11
-218.29960204849749
 21
220.2804844140631
 31
0.0
  0
LINE
  5
6F7
  8
DIMNSIONS
 62
     7
 10
-225.0
 20
245.28671000000051
 30
0.0
 11
-231.7003979515024
 21
220.2804844140631
 31
0.0
  0
LINE
  5
6F8
  8
DIMNSIONS
 62
     7
 10
-225.0
 20
171.7867100000004
 30
0.0
 11
-231.7003979515024
 21
196.7929355859379
 31
0.0
  0
LINE
  5
6F9
  8
DIMNSIONS
 62
     7
 10
-225.0
 20
171.7867100000004
 30
0.0
 11
-218.29960204849749
 21
196.7929355859379
 31
0.0
  0
LINE
  5
6FA
  8
DIMNSIONS
  6
CONTINUOUS
 62
     7
 10
-225.0
 20
245.28671000000051
 30
0.0
 11
-225.0
 21
171.7867100000004
 31
0.0
  0
TEXT
  5
6FB
  8
DIMNSIONS
 62
     7
 10
-237.05555555555549
 20
173.25893222222271
 30
0.0
 40
28.222222222222221
  1
73.5
 50
90.0
 41
0.8
 11
-265.27777777777771
 21
173.25893222222271
 31
0.0
 73
     3
  0
LINE
  5
6FC
  8
DIMNSIONS
  6
CONTINUOUS
 62
     7
 10
-559.89975000000004
 20
-158.34193019999989
 30
0.0
 11
-670.0
 21
-158.34193019999989
 31
0.0
  0
LINE
  5
6FD
  8
DIMNSIONS
  6
CONTINUOUS
 62
     7
 10
-569.74568602387785
 20
-188.34193020000009
 30
0.0
 11
-670.0
 21
-188.34193020000009
 31
0.0
  0
LINE
  5
6FE
  8
DIMNSIONS
  6
CONTINUOUS
 62
     7
 10
-650.0
 20
-188.34193020000009
 30
0.0
 11
-650.0
 21
-158.34193019999989
 31
0.0
  0
LINE
  5
6FF
  8
DIMNSIONS
 62
     7
 10
-650.0
 20
-158.34193019999989
 30
0.0
 11
-656.7003979515024
 21
-133.33570461406239
 31
0.0
  0
LINE
  5
700
  8
DIMNSIONS
 62
     7
 10
-650.0
 20
-158.34193019999989
 30
0.0
 11
-643.2996020484976
 21
-133.33570461406239
 31
0.0
  0
LINE
  5
701
  8
DIMNSIONS
  6
CONTINUOUS
 62
     7
 10
-650.0
 20
-158.34193019999989
 30
0.0
 11
-650.0
 21
-111.5089322222223
 31
0.0
  0
LINE
  5
702
  8
DIMNSIONS
 62
     7
 10
-650.0
 20
-188.34193020000009
 30
0.0
 11
-643.2996020484976
 21
-213.34815578593759
 31
0.0
  0
LINE
  5
703
  8
DIMNSIONS
 62
     7
 10
-650.0
 20
-188.34193020000009
 30
0.0
 11
-656.7003979515024
 21
-213.34815578593759
 31
0.0
  0
LINE
  5
704
  8
DIMNSIONS
  6
CONTINUOUS
 62
     7
 10
-650.0
 20
-188.34193020000009
 30
0.0
 11
-650.0
 21
-238.34193020000009
 31
0.0
  0
TEXT
  5
705
  8
DIMNSIONS
 62
     7
 10
-662.05555555555543
 20
-146.78671000000011
 30
0.0
 40
28.222222222222221
  1
30
 50
90.0
 41
0.8
 11
-690.27777777777771
 21
-146.78671000000011
 31
0.0
 73
     3
  0
LINE
  5
706
  8
DIMNSIONS
  6
CONTINUOUS
 62
     7
 10
-569.74568602387785
 20
-188.34193020000009
 30
0.0
 11
-670.0
 21
-188.34193020000009
 31
0.0
  0
LINE
  5
707
  8
DIMNSIONS
  6
CONTINUOUS
 62
     7
 10
-540.14975000000004
 20
-300.00000000000051
 30
0.0
 11
-670.0
 21
-300.00000000000051
 31
0.0
  0
LINE
  5
708
  8
DIMNSIONS
 62
     7
 10
-650.0
 20
-188.34193020000009
 30
0.0
 11
-643.2996020484976
 21
-213.34815578593759
 31
0.0
  0
LINE
  5
709
  8
DIMNSIONS
 62
     7
 10
-650.0
 20
-188.34193020000009
 30
0.0
 11
-656.7003979515024
 21
-213.34815578593759
 31
0.0
  0
LINE
  5
70A
  8
DIMNSIONS
 62
     7
 10
-650.0
 20
-300.00000000000051
 30
0.0
 11
-656.7003979515024
 21
-274.99377441406313
 31
0.0
  0
LINE
  5
70B
  8
DIMNSIONS
 62
     7
 10
-650.0
 20
-300.00000000000051
 30
0.0
 11
-643.2996020484976
 21
-274.99377441406313
 31
0.0
  0
LINE
  5
70C
  8
DIMNSIONS
  6
CONTINUOUS
 62
     7
 10
-650.0
 20
-188.34193020000009
 30
0.0
 11
-650.0
 21
-300.00000000000051
 31
0.0
  0
TEXT
  5
70D
  8
DIMNSIONS
 62
     7
 10
-662.05555555555543
 20
-270.6292984333337
 30
0.0
 40
28.222222222222221
  1
112
 50
90.0
 41
0.8
 11
-690.27777777777771
 21
-270.6292984333337
 31
0.0
 73
     3
  0
LINE
  5
70E
  8
DIMNSIONS
  6
CONTINUOUS
 62
     7
 10
-479.29388194350253
 20
-325.11462064571089
 30
0.0
 11
-467.35271485955661
 21
-354.67004630963282
 31
0.0
  0
LINE
  5
70F
  8
DIMNSIONS
  6
CONTINUOUS
 62
     7
 10
-581.00561805649727
 20
-325.11462064571089
 30
0.0
 11
-592.94678514044324
 21
-354.67004630963282
 31
0.0
  0
LINE
  5
710
  8
DIMNSIONS
 62
     7
 10
-474.84484672787482
 20
-336.1263692182971
 30
0.0
 11
-494.5294581022348
 21
-350.42807652902758
 31
0.0
  0
LINE
  5
711
  8
DIMNSIONS
 62
     7
 10
-474.84484672787482
 20
-336.1263692182971
 30
0.0
 11
-499.04307389705991
 21
-338.66970537969928
 31
0.0
  0
LINE
  5
712
  8
DIMNSIONS
 62
     7
 10
-585.45465327212514
 20
-336.1263692182971
 30
0.0
 11
-561.30449894654021
 21
-339.09163531290142
 31
0.0
  0
LINE
  5
713
  8
DIMNSIONS
 62
     7
 10
-585.45465327212514
 20
-336.1263692182971
 30
0.0
 11
-566.02263916815605
 21
-350.76944214799761
 31
0.0
  0
ARC
  5
714
  8
DIMNSIONS
  6
CONTINUOUS
 62
     7
 10
-530.14974999999993
 20
-199.24193020000021
 30
0.0
 40
147.6346232131641
 50
248.0
 51
291.99999999999989
  0
TEXT
  5
715
  8
DIMNSIONS
 62
     7
 10
-560.01639761285458
 20
-381.07070544238883
 30
0.0
 40
28.222222222222221
  1
44°
 50
1.709535212729953
 41
0.8
 11
-560.85833963348227
 21
-352.86104467175221
 31
0.0
 73
     3
  0
LINE
  5
716
  8
DIMNSIONS
  6
CONTINUOUS
 62
     7
 10
-460.29974999999979
 20
-251.04670999999999
 30
0.0
 11
-460.29974999999979
 21
-76.149560907116907
 31
0.0
  0
LINE
  5
717
  8
DIMNSIONS
  6
CONTINUOUS
 62
     7
 10
-492.7832540915897
 20
-186.8466310220297
 30
0.0
 11
-532.35848876968112
 21
-90.352238159844205
 31
0.0
  0
LINE
  5
718
  8
DIMNSIONS
 62
     7
 10
-524.76936557910096
 20
-108.8564325275598
 30
0.0
 11
-543.94286323294079
 21
-123.8364106543653
 31
0.0
  0
LINE
  5
719
  8
DIMNSIONS
 62
     7
 10
-524.76936557910096
 20
-108.8564325275598
 30
0.0
 11
-548.86409069013041
 21
-112.2427253065885
 31
0.0
  0
ARC
  5
71A
  8
DIMNSIONS
  6
CONTINUOUS
 62
     7
 10
-460.29974999999979
 20
-266.049598
 30
0.0
 40
169.90003709288311
 50
112.3000000000001
 51
129.16161477462171
  0
LINE
  5
71B
  8
DIMNSIONS
 62
     7
 10
-460.29974999999979
 20
-96.149560907116864
 30
0.0
 11
-436.79730859374979
 21
-89.852100712152449
 31
0.0
  0
LINE
  5
71C
  8
DIMNSIONS
 62
     7
 10
-460.29974999999979
 20
-96.149560907116864
 30
0.0
 11
-436.79730859374979
 21
-102.44702110208129
 31
0.0
  0
ARC
  5
71D
  8
DIMNSIONS
  6
CONTINUOUS
 62
     7
 10
-460.29974999999979
 20
-266.049598
 30
0.0
 40
169.90003709288311
 50
73.138385225378414
 51
90.0
  0
TEXT
  5
71E
  8
DIMNSIONS
 62
     7
 10
-530.05914780215642
 20
-74.411121944461257
 30
0.0
 40
28.222222222222221
  1
22.3°
 50
4.9636053443919721
 41
0.8
 11
-532.50101732332325
 21
-46.294737034553457
 31
0.0
 73
     3
  0
LINE
  5
71F
  8
DIMNSIONS
  6
CONTINUOUS
 62
     7
 10
-608.72975000000008
 20
-509.24600000000009
 30
0.0
 11
-670.0
 21
-509.24600000000009
 31
0.0
  0
LINE
  5
720
  8
DIMNSIONS
  6
CONTINUOUS
 62
     7
 10
-608.72974999999985
 20
-700.0
 30
0.0
 11
-670.0
 21
-700.0
 31
0.0
  0
LINE
  5
721
  8
DIMNSIONS
 62
     7
 10
-650.0
 20
-509.24600000000009
 30
0.0
 11
-643.2996020484976
 21
-534.25222558593771
 31
0.0
  0
LINE
  5
722
  8
DIMNSIONS
 62
     7
 10
-650.0
 20
-509.24600000000009
 30
0.0
 11
-656.7003979515024
 21
-534.25222558593771
 31
0.0
  0
LINE
  5
723
  8
DIMNSIONS
 62
     7
 10
-650.0
 20
-700.0
 30
0.0
 11
-656.7003979515024
 21
-674.99377441406239
 31
0.0
  0
LINE
  5
724
  8
DIMNSIONS
 62
     7
 10
-650.0
 20
-700.0
 30
0.0
 11
-643.2996020484976
 21
-674.99377441406239
 31
0.0
  0
LINE
  5
725
  8
DIMNSIONS
  6
CONTINUOUS
 62
     7
 10
-650.0
 20
-509.24600000000009
 30
0.0
 11
-650.0
 21
-700.0
 31
0.0
  0
TEXT
  5
726
  8
DIMNSIONS
 62
     7
 10
-662.05555555555543
 20
-631.08133333333353
 30
0.0
 40
28.222222222222221
  1
191
 50
90.0
 41
0.8
 11
-690.27777777777771
 21
-631.08133333333353
 31
0.0
 73
     3
  0
LINE
  5
727
  8
DIMNSIONS
  6
CONTINUOUS
 62
     7
 10
-599.99974999999995
 20
-708.7299999999999
 30
0.0
 11
-599.99974999999995
 21
-791.78670999999986
 31
0.0
  0
LINE
  5
728
  8
DIMNSIONS
  6
CONTINUOUS
 62
     7
 10
-460.29974999999979
 20
-708.7299999999999
 30
0.0
 11
-460.29974999999979
 21
-791.78670999999986
 31
0.0
  0
LINE
  5
729
  8
DIMNSIONS
 62
     7
 10
-599.99974999999995
 20
-771.78670999999997
 30
0.0
 11
-574.99352441406245
 21
-765.08631204849769
 31
0.0
  0
LINE
  5
72A
  8
DIMNSIONS
 62
     7
 10
-599.99974999999995
 20
-771.78670999999997
 30
0.0
 11
-574.99352441406245
 21
-778.48710795150225
 31
0.0
  0
LINE
  5
72B
  8
DIMNSIONS
 62
     7
 10
-460.29974999999979
 20
-771.78670999999997
 30
0.0
 11
-485.30597558593729
 21
-778.48710795150225
 31
0.0
  0
LINE
  5
72C
  8
DIMNSIONS
 62
     7
 10
-460.29974999999979
 20
-771.78670999999997
 30
0.0
 11
-485.30597558593729
 21
-765.08631204849769
 31
0.0
  0
LINE
  5
72D
  8
DIMNSIONS
  6
CONTINUOUS
 62
     7
 10
-599.99974999999995
 20
-771.78670999999997
 30
0.0
 11
-460.29974999999979
 21
-771.78670999999997
 31
0.0
  0
TEXT
  5
72E
  8
DIMNSIONS
 62
     7
 10
-556.6080833333333
 20
-759.73115444444443
 30
0.0
 40
28.222222222222221
  1
140
 41
0.8
 11
-556.6080833333333
 21
-731.50893222222226
 31
0.0
 73
     3
  0
LINE
  5
72F
  8
DIMNSIONS
  6
CONTINUOUS
 62
     7
 10
-109.483236552062
 20
-673.31434554985753
 30
0.0
 11
-158.60256725688851
 21
-689.74944370076696
 31
0.0
  0
LINE
  5
730
  8
DIMNSIONS
  6
CONTINUOUS
 62
     7
 10
-109.483236552062
 20
-566.08236335726178
 30
0.0
 11
-158.60256725688851
 21
-549.64726520635224
 31
0.0
  0
LINE
  5
731
  8
DIMNSIONS
 62
     7
 10
-139.6360941527646
 20
-683.40335057266486
 30
0.0
 11
-152.8879885111275
 21
-662.99722274604972
 31
0.0
  0
LINE
  5
732
  8
DIMNSIONS
 62
     7
 10
-139.6360941527646
 20
-683.40335057266486
 30
0.0
 11
-140.90950740206699
 21
-659.10517830276206
 31
0.0
  0
LINE
  5
733
  8
DIMNSIONS
 62
     7
 10
-139.6360941527646
 20
-555.99335833445423
 30
0.0
 11
-140.90950740206699
 21
-580.29153060435715
 31
0.0
  0
LINE
  5
734
  8
DIMNSIONS
 62
     7
 10
-139.6360941527646
 20
-555.99335833445423
 30
0.0
 11
-152.8879885111275
 21
-576.39948616106949
 31
0.0
  0
ARC
  5
735
  8
DIMNSIONS
  6
CONTINUOUS
 62
     7
 10
50.75806979999949
 20
-619.69835445355955
 30
0.0
 40
200.76918139447409
 50
161.49999999999989
 51
198.5
  0
TEXT
  5
736
  8
DIMNSIONS
 62
     7
 10
-162.06666715003001
 20
-654.97613223133749
 30
0.0
 40
28.222222222222221
  1
37°
 50
90.0
 41
0.8
 11
-190.28888937225221
 21
-654.97613223133749
 31
0.0
 73
     3
  0
LINE
  5
737
  8
DIMNSIONS
  6
CONTINUOUS
 62
     7
 10
-30.986870943342758
 20
-509.25197431879428
 30
0.0
 11
120.5368919521443
 21
-509.25197431879428
 31
0.0
  0
LINE
  5
738
  8
DIMNSIONS
  6
CONTINUOUS
 62
     7
 10
70.186851270707123
 20
-519.41585356196435
 30
0.0
 11
119.90321931116171
 21
-523.76547025274374
 31
0.0
  0
LINE
  5
739
  8
DIMNSIONS
 62
     7
 10
99.97932528306201
 20
-522.02235615520101
 30
0.0
 11
105.0126850714943
 21
-550.56795801493217
 31
0.0
  0
LINE
  5
73A
  8
DIMNSIONS
 62
     7
 10
99.97932528306201
 20
-522.02235615520101
 30
0.0
 11
90.065541796365935
 21
-549.26025242626065
 31
0.0
  0
ARC
  5
73B
  8
DIMNSIONS
  6
CONTINUOUS
 62
     7
 10
-45.986870943342282
 20
-509.25197431879428
 30
0.0
 40
146.52376289548661
 50
335.44829998972421
 51
355.0000021781093
  0
LINE
  5
73C
  8
DIMNSIONS
 62
     7
 10
100.5368919521443
 20
-509.25197431879428
 30
0.0
 11
93.034772485056081
 21
-481.25368330316923
 31
0.0
  0
LINE
  5
73D
  8
DIMNSIONS
 62
     7
 10
100.5368919521443
 20
-509.25197431879428
 30
0.0
 11
108.03901141923259
 21
-481.25368330316923
 31
0.0
  0
ARC
  5
73E
  8
DIMNSIONS
  6
CONTINUOUS
 62
     7
 10
-45.986870943342282
 20
-509.25197431879428
 30
0.0
 40
146.52376289548661
 50
0.0
 51
18.89740604979141
  0
TEXT
  5
73F
  8
DIMNSIONS
 62
     7
 10
49.999749999999928
 20
-488.47415737119729
 30
0.0
 40
28.222222222222221
  1
5°
 41
0.8
 11
49.999749999999928
 21
-460.25193514897512
 31
0.0
 73
     3
  0
TEXT
  5
740
  8
DIMNSIONS
 62
     7
 10
-324.99999999999989
 20
-142.51471166666681
 30
0.0
 40
25.399999999999999
  1
注1) スピーカの角度をつけた時の寸法です。
 41
0.8
 11
-324.99999999999989
 21
-117.11471166666681
 31
0.0
 73
     3
  0
LINE
  5
741
  8
DIMNSIONS
  6
CONTINUOUS
 62
     7
 10
-50.000000000000021
 20
-704.79701259999956
 30
0.0
 11
-50.000000000000021
 21
-816.78670999999997
 31
0.0
  0
LINE
  5
742
  8
DIMNSIONS
  6
CONTINUOUS
 62
     7
 10
61.658069800000007
 20
-699.13767780560124
 30
0.0
 11
61.658069800000007
 21
-816.78670999999997
 31
0.0
  0
LINE
  5
743
  8
DIMNSIONS
 62
     7
 10
-50.000000000000021
 20
-796.78670999999997
 30
0.0
 11
-24.993774414062511
 21
-790.0863120484978
 31
0.0
  0
LINE
  5
744
  8
DIMNSIONS
 62
     7
 10
-50.000000000000021
 20
-796.78670999999997
 30
0.0
 11
-24.993774414062511
 21
-803.48710795150237
 31
0.0
  0
LINE
  5
745
  8
DIMNSIONS
 62
     7
 10
61.658069800000007
 20
-796.78670999999997
 30
0.0
 11
36.6518442140625
 21
-803.48710795150237
 31
0.0
  0
LINE
  5
746
  8
DIMNSIONS
 62
     7
 10
61.658069800000007
 20
-796.78670999999997
 30
0.0
 11
36.6518442140625
 21
-790.0863120484978
 31
0.0
  0
LINE
  5
747
  8
DIMNSIONS
  6
CONTINUOUS
 62
     7
 10
-50.000000000000021
 20
-796.78670999999997
 30
0.0
 11
61.658069800000007
 21
-796.78670999999997
 31
0.0
  0
TEXT
  5
748
  8
DIMNSIONS
 62
     7
 10
-20.629298433333339
 20
-784.73115444444443
 30
0.0
 40
28.222222222222221
  1
112
 41
0.8
 11
-20.629298433333339
 21
-756.50893222222226
 31
0.0
 73
     3
  0
LINE
  5
749
  8
DIMNSIONS
  6
CONTINUOUS
 62
     7
 10
-36.12370540000007
 20
-700.00000000000648
 30
0.0
 11
169.99974999999989
 21
-700.00000000000648
 31
0.0
  0
LINE
  5
74A
  8
DIMNSIONS
  6
CONTINUOUS
 62
     7
 10
101.65806980000001
 20
-619.69835445355955
 30
0.0
 11
169.99974999999989
 21
-619.69835445355955
 31
0.0
  0
LINE
  5
74B
  8
DIMNSIONS
 62
     7
 10
149.99974999999989
 20
-700.00000000000648
 30
0.0
 11
143.2993520484975
 21
-674.99377441406887
 31
0.0
  0
LINE
  5
74C
  8
DIMNSIONS
 62
     7
 10
149.99974999999989
 20
-700.00000000000648
 30
0.0
 11
156.70014795150229
 21
-674.99377441406887
 31
0.0
  0
LINE
  5
74D
  8
DIMNSIONS
 62
     7
 10
149.99974999999989
 20
-619.69835445355955
 30
0.0
 11
156.70014795150229
 21
-644.70458003949716
 31
0.0
  0
LINE
  5
74E
  8
DIMNSIONS
 62
     7
 10
149.99974999999989
 20
-619.69835445355955
 30
0.0
 11
143.2993520484975
 21
-644.70458003949716
 31
0.0
  0
LINE
  5
74F
  8
DIMNSIONS
  6
CONTINUOUS
 62
     7
 10
149.99974999999989
 20
-700.00000000000648
 30
0.0
 11
149.99974999999989
 21
-619.69835445355955
 31
0.0
  0
TEXT
  5
750
  8
DIMNSIONS
 62
     7
 10
137.94419444444441
 20
-677.48806611567204
 30
0.0
 40
28.222222222222221
  1
80
 50
90.0
 41
0.8
 11
109.72197222222211
 21
-677.48806611567204
 31
0.0
 73
     3
  0
LINE
  5
751
  8
DATA
  6
CONTINUOUS
 62
     7
 10
-650.0
 20
0.0
 30
0.0
 11
-250.0
 21
0.0
 31
0.0
  0
LINE
  5
752
  8
DATA
  6
CONTINUOUS
 62
     7
 10
-599.99974999999995
 20
-698.73000000000002
 30
0.0
 11
-599.99974999999995
 21
-510.51600000000002
 31
0.0
  0
LINE
  5
753
  8
DATA
  6
CONTINUOUS
 62
     7
 10
-593.12031239999976
 20
-696.36701259999995
 30
0.0
 11
-593.12031239999976
 21
-512.96100400000012
 31
0.0
  0
LINE
  5
754
  8
DATA
  6
CONTINUOUS
 62
     7
 10
-592.10035000000016
 20
-695.3470248000001
 30
0.0
 11
-592.10035000000016
 21
-513.98099180000031
 31
0.0
  0
ARC
  5
755
  8
DATA
  6
CONTINUOUS
 62
     7
 10
-470.27788438903571
 20
-565.41981438852997
 30
0.0
 40
53.369731440612313
 50
113.90067112009309
 51
145.90403163244119
  0
LINE
  5
756
  8
DATA
  6
CONTINUOUS
 62
     7
 10
-591.04015400000003
 20
-685.65728039999988
 30
0.0
 11
-591.04015399999969
 21
-523.67073620000019
 31
0.0
  0
LINE
  5
757
  8
DATA
  6
CONTINUOUS
 62
     7
 10
-568.39874640000005
 20
-544.24613320000014
 30
0.0
 11
-568.39874640000005
 21
-516.62657960000001
 31
0.0
  0
ARC
  5
758
  8
DATA
  6
CONTINUOUS
 62
     7
 10
-590.0216156109642
 20
-565.41981438853009
 30
0.0
 40
53.36973144061232
 50
34.095968367558683
 51
66.099328879906778
  0
LINE
  5
759
  8
DATA
  6
CONTINUOUS
 62
     7
 10
-491.90072819999989
 20
-516.62657960000001
 30
0.0
 11
-491.90072819999989
 21
-544.24613320000014
 31
0.0
  0
LINE
  5
75A
  8
DATA
  6
CONTINUOUS
 62
     7
 10
-460.29975000000002
 20
-698.73000000000002
 30
0.0
 11
-460.29974999999979
 21
-510.51600000000002
 31
0.0
  0
LINE
  5
75B
  8
DATA
  6
CONTINUOUS
 62
     7
 10
-467.17916220000001
 20
-563.25755060000017
 30
0.0
 11
-467.17916220000001
 21
-512.96100400000012
 31
0.0
  0
LINE
  5
75C
  8
DATA
  6
CONTINUOUS
 62
     7
 10
-468.19914999999992
 20
-562.63810722582252
 30
0.0
 11
-468.19914999999992
 21
-513.98099180000031
 31
0.0
  0
LINE
  5
75D
  8
DATA
  6
CONTINUOUS
 62
     7
 10
-469.2593205999998
 20
-562.15643168393876
 30
0.0
 11
-469.2593205999998
 21
-523.67073620000019
 31
0.0
  0
LINE
  5
75E
  8
DATA
  6
CONTINUOUS
 62
     7
 10
-592.10034999999982
 20
-695.3470248000001
 30
0.0
 11
-468.19914999999992
 21
-695.3470248000001
 31
0.0
  0
LINE
  5
75F
  8
DATA
  6
CONTINUOUS
 62
     7
 10
-593.12031239999976
 20
-696.36701259999995
 30
0.0
 11
-467.17916219999978
 21
-696.36701259999995
 31
0.0
  0
LINE
  5
760
  8
DATA
  6
CONTINUOUS
 62
     7
 10
-598.72974999999985
 20
-700.0
 30
0.0
 11
-461.56974999999989
 21
-700.0
 31
0.0
  0
ARC
  5
761
  8
DATA
  6
CONTINUOUS
 62
     7
 10
-530.14975000000004
 20
-649.29517380000004
 30
0.0
 40
39.778965399999983
 50
105.63501762937911
 51
14.60195861430388
  0
ARC
  5
762
  8
DATA
  6
CONTINUOUS
 62
     7
 10
-486.80083999999999
 20
-549.77573860000007
 30
0.0
 40
7.5223115999999663
 50
0.0
 51
180.0
  0
ARC
  5
763
  8
DATA
  6
CONTINUOUS
 62
     7
 10
-486.80083999999999
 20
-549.77573860000007
 30
0.0
 40
5.0998627999999826
 50
0.0
 51
180.0
  0
ARC
  5
764
  8
DATA
  6
CONTINUOUS
 62
     7
 10
-495.54352
 20
-683.90137840000011
 30
0.0
 40
5.0311812000000158
 50
277.64308499999959
 51
352.356852
  0
ARC
  5
765
  8
DATA
  6
CONTINUOUS
 62
     7
 10
-486.80083999999999
 20
-559.97546419999992
 30
0.0
 40
7.5223115999999663
 50
180.0
 51
0.0
  0
ARC
  5
766
  8
DATA
  6
CONTINUOUS
 62
     7
 10
-486.80083999999999
 20
-559.97546419999992
 30
0.0
 40
5.0998627999999826
 50
180.0
 51
0.0
  0
ARC
  5
767
  8
DATA
  6
CONTINUOUS
 62
     7
 10
-496.59765022511772
 20
-557.76433575810711
 30
0.0
 40
16.244251232341281
 50
263.2842585042722
 51
315.99012808427022
  0
ARC
  5
768
  8
DATA
  6
CONTINUOUS
 62
     7
 10
-497.58122281868731
 20
-614.18474151637724
 30
0.0
 40
25.77251190356905
 50
255.34121332271161
 51
284.93954266405689
  0
LINE
  5
769
  8
DATA
  6
CONTINUOUS
 62
     7
 10
-581.35040959999981
 20
-695.3470248000001
 30
0.0
 11
-581.35040959999981
 21
-693.81708120000008
 31
0.0
  0
ARC
  5
76A
  8
DATA
  6
CONTINUOUS
 62
     7
 10
-598.72974999999985
 20
-698.73000000000002
 30
0.0
 40
1.2699999999999809
 50
180.0
 51
270.0
  0
LINE
  5
76B
  8
DATA
  6
CONTINUOUS
 62
     7
 10
-494.87435699999992
 20
-688.88788100000011
 30
0.0
 11
-524.30658159999996
 21
-692.83753020000006
 31
0.0
  0
ARC
  5
76C
  8
DATA
  6
CONTINUOUS
 62
     7
 10
-498.91354843251611
 20
-604.51489736866017
 30
0.0
 40
30.620598530723289
 50
89.221133455832117
 51
117.3205641546555
  0
ARC
  5
76D
  8
DATA
  6
CONTINUOUS
 62
     7
 10
-489.55048662366039
 20
-606.85998040540392
 30
0.0
 40
35.38907275228523
 50
222.6592763817012
 51
245.71834719635069
  0
ARC
  5
76E
  8
DATA
  6
CONTINUOUS
 62
     7
 10
-530.14975000000004
 20
-649.29517380000004
 30
0.0
 40
37.144705999999921
 50
105.7987863573577
 51
14.90381547792564
  0
ARC
  5
76F
  8
DATA
  6
CONTINUOUS
 62
     7
 10
-530.14975000000004
 20
-649.29517380000004
 30
0.0
 40
34.132977199999921
 50
105.5800418607095
 51
15.87941883148194
  0
CIRCLE
  5
770
  8
DATA
  6
CONTINUOUS
 62
     7
 10
-530.14975000000004
 20
-554.87560140000016
 30
0.0
 40
14.024635400000079
  0
ARC
  5
771
  8
DATA
  6
CONTINUOUS
 62
     7
 10
-573.49863460000017
 20
-549.77573860000007
 30
0.0
 40
7.52231160000008
 50
0.0
 51
180.0
  0
ARC
  5
772
  8
DATA
  6
CONTINUOUS
 62
     7
 10
-573.49863460000017
 20
-549.77573860000007
 30
0.0
 40
5.0998627999999826
 50
0.0
 51
180.0
  0
LINE
  5
773
  8
DATA
  6
CONTINUOUS
 62
     7
 10
-546.08682760000011
 20
-573.62010620000001
 30
0.0
 11
-546.08682759999976
 21
-536.13109659999986
 31
0.0
  0
LINE
  5
774
  8
DATA
  6
CONTINUOUS
 62
     7
 10
-514.21264699999995
 20
-536.13109659999986
 30
0.0
 11
-514.21264699999995
 21
-573.62010620000001
 31
0.0
  0
CIRCLE
  5
775
  8
DATA
  6
CONTINUOUS
 62
     7
 10
-530.14975000000004
 20
-649.29517380000004
 30
0.0
 40
19.074307800000032
  0
ARC
  5
776
  8
DATA
  6
CONTINUOUS
 62
     7
 10
-530.14975000000004
 20
-649.29517380000004
 30
0.0
 40
43.932678200000041
 50
262.356852
 51
277.64314800000011
  0
LINE
  5
777
  8
DATA
  6
CONTINUOUS
 62
     7
 10
-515.10264699999993
 20
-574.51010620000011
 30
0.0
 11
-545.19682760000001
 21
-574.51010620000011
 31
0.0
  0
ARC
  5
778
  8
DATA
  6
CONTINUOUS
 62
     7
 10
-528.32411044587855
 20
-547.02001582886874
 30
0.0
 40
33.960380005025499
 50
267.60408030009347
 51
296.88452278421408
  0
ARC
  5
779
  8
DATA
  6
CONTINUOUS
 62
     7
 10
-537.14227549019711
 20
-652.99093960968378
 30
0.0
 40
30.915196674948191
 50
45.764326494780228
 51
76.159464673538011
  0
CIRCLE
  5
77A
  8
DATA
  6
CONTINUOUS
 62
     7
 10
-580.10238060000006
 20
-673.72321740000007
 30
0.0
 40
4.4272454000000598
  0
ARC
  5
77B
  8
DATA
  6
CONTINUOUS
 62
     7
 10
-530.14975000000004
 20
-649.29517380000004
 30
0.0
 40
43.932678199999927
 50
172.356852
 51
187.643148
  0
ARC
  5
77C
  8
DATA
  6
CONTINUOUS
 62
     7
 10
-564.7559546
 20
-683.90137840000011
 30
0.0
 40
5.0311811999999678
 50
187.6431479999998
 51
262.35691500000041
  0
LINE
  5
77D
  8
DATA
  6
CONTINUOUS
 62
     7
 10
-565.42511760000002
 20
-688.88788100000011
 30
0.0
 11
-535.99291840000001
 21
-692.83753020000006
 31
0.0
  0
LINE
  5
77E
  8
DATA
  6
CONTINUOUS
 62
     7
 10
-569.74243179999985
 20
-684.57054140000014
 30
0.0
 11
-573.6920809999998
 21
-655.13834220000012
 31
0.0
  0
ARC
  5
77F
  8
DATA
  6
CONTINUOUS
 62
     7
 10
-564.7559546
 20
-614.6889692000002
 30
0.0
 40
5.0311812000000158
 50
97.643084999999544
 51
172.35685200000009
  0
LINE
  5
780
  8
DATA
  6
CONTINUOUS
 62
     7
 10
-569.74243179999985
 20
-614.01980620000018
 30
0.0
 11
-571.74826979999978
 21
-628.96689340000012
 31
0.0
  0
LINE
  5
781
  8
DATA
  6
CONTINUOUS
 62
     7
 10
-571.74826979999978
 20
-628.96689340000012
 30
0.0
 11
-573.6920809999998
 21
-643.45200540000008
 31
0.0
  0
LINE
  5
782
  8
DATA
  6
CONTINUOUS
 62
     7
 10
-565.42511760000002
 20
-609.70246660000021
 30
0.0
 11
-550.28493959999992
 21
-607.67074600000012
 31
0.0
  0
ARC
  5
783
  8
DATA
  6
CONTINUOUS
 62
     7
 10
-573.49863460000017
 20
-559.97546419999992
 30
0.0
 40
7.5223115999999663
 50
180.0
 51
0.0
  0
ARC
  5
784
  8
DATA
  6
CONTINUOUS
 62
     7
 10
-573.49863460000017
 20
-559.97546419999992
 30
0.0
 40
5.0998627999999826
 50
180.0
 51
0.0
  0
LINE
  5
785
  8
DATA
  6
CONTINUOUS
 62
     7
 10
-565.97632300000021
 20
-559.97546419999992
 30
0.0
 11
-565.97632300000021
 21
-549.77573860000007
 31
0.0
  0
LINE
  5
786
  8
DATA
  6
CONTINUOUS
 62
     7
 10
-581.02092080000011
 20
-549.77573860000007
 30
0.0
 11
-581.02092080000011
 21
-559.97546419999992
 31
0.0
  0
LINE
  5
787
  8
DATA
  6
CONTINUOUS
 62
     7
 10
-568.39874640000005
 20
-549.77573860000007
 30
0.0
 11
-568.39874640000005
 21
-559.97546419999992
 31
0.0
  0
LINE
  5
788
  8
DATA
  6
CONTINUOUS
 62
     7
 10
-578.59849739999981
 20
-549.77573860000007
 30
0.0
 11
-578.59849739999981
 21
-559.97546419999992
 31
0.0
  0
ARC
  5
789
  8
DATA
  6
CONTINUOUS
 62
     7
 10
-545.19682760000001
 20
-573.62010620000001
 30
0.0
 40
0.8900000000000998
 50
180.0
 51
270.0
  0
LINE
  5
78A
  8
DATA
  6
CONTINUOUS
 62
     7
 10
-568.39874640000005
 20
-593.1246232000002
 30
0.0
 11
-568.39874640000005
 21
-565.50506959999996
 31
0.0
  0
ARC
  5
78B
  8
DATA
  6
CONTINUOUS
 62
     7
 10
-590.0216156109642
 20
-544.33138841147002
 30
0.0
 40
53.369731440612362
 50
293.90067112009319
 51
325.90403163244127
  0
ARC
  5
78C
  8
DATA
  6
CONTINUOUS
 62
     7
 10
-538.78789339489742
 20
-605.20125346123814
 30
0.0
 40
16.742984236003959
 50
124.82804127372221
 51
138.05444451807301
  0
ARC
  5
78D
  8
DATA
  6
CONTINUOUS
 62
     7
 10
-546.83912965628713
 20
-596.5388283039041
 30
0.0
 40
5.0766339939837151
 50
150.12148044207029
 51
207.79026323309381
  0
ARC
  5
78E
  8
DATA
  6
CONTINUOUS
 62
     7
 10
-537.98075429301082
 20
-593.22577520573032
 30
0.0
 40
14.507597415288901
 50
203.04889526829001
 51
235.66316845832691
  0
ARC
  5
78F
  8
DATA
  6
CONTINUOUS
 62
     7
 10
-550.60081205118877
 20
-614.58063307978125
 30
0.0
 40
10.372313384846381
 50
15.354980291475499
 51
64.673989735695542
  0
ARC
  5
790
  8
DATA
  6
CONTINUOUS
 62
     7
 10
-521.87372361608516
 20
-609.06803265175176
 30
0.0
 40
18.92822139847328
 50
188.4028622989585
 51
211.5437333273901
  0
ARC
  5
791
  8
DATA
  6
CONTINUOUS
 62
     7
 10
-526.23468092521273
 20
-605.20768803628334
 30
0.0
 40
18.109485630152609
 50
229.46137394330569
 51
258.81753504786423
  0
CIRCLE
  5
792
  8
DATA
  6
CONTINUOUS
 62
     7
 10
-564.25511740000002
 20
-615.18980640000007
 30
0.0
 40
3.011728800000014
  0
LINE
  5
793
  8
DATA
  6
CONTINUOUS
 62
     7
 10
-565.7850609999997
 20
-615.18980640000007
 30
0.0
 11
-562.72514839999985
 21
-615.18980640000007
 31
0.0
  0
LINE
  5
794
  8
DATA
  6
CONTINUOUS
 62
     7
 10
-564.2551173999999
 20
-616.7197500000002
 30
0.0
 11
-564.2551173999999
 21
-613.65983740000001
 31
0.0
  0
LINE
  5
795
  8
DATA
  6
CONTINUOUS
 62
     7
 10
-582.35142359999998
 20
-673.7232047
 30
0.0
 11
-577.85333759999969
 21
-673.7232047
 31
0.0
  0
LINE
  5
796
  8
DATA
  6
CONTINUOUS
 62
     7
 10
-580.10239329999979
 20
-675.97226040000021
 30
0.0
 11
-580.10239329999979
 21
-671.47417440000004
 31
0.0
  0
LINE
  5
797
  8
DATA
  6
CONTINUOUS
 62
     7
 10
-582.88037859999986
 20
-692.2871121999998
 30
0.0
 11
-587.2152441999998
 21
-692.2871121999998
 31
0.0
  0
ARC
  5
798
  8
DATA
  6
CONTINUOUS
 62
     7
 10
-589.51018499999975
 20
-687.18724940000004
 30
0.0
 40
1.5299689999999371
 50
0.0
 51
90.0
  0
ARC
  5
799
  8
DATA
  6
CONTINUOUS
 62
     7
 10
-587.2152441999998
 20
-691.5221403999999
 30
0.0
 40
0.7649718000000121
 50
180.0
 51
270.0
  0
LINE
  5
79A
  8
DATA
  6
CONTINUOUS
 62
     7
 10
-587.98024139999984
 20
-691.5221403999999
 30
0.0
 11
-587.98024139999984
 21
-687.18724940000004
 31
0.0
  0
LINE
  5
79B
  8
DATA
  6
CONTINUOUS
 62
     7
 10
-591.04015399999969
 20
-685.65728039999988
 30
0.0
 11
-589.51018499999975
 21
-685.65728039999988
 31
0.0
  0
ARC
  5
79C
  8
DATA
  6
CONTINUOUS
 62
     7
 10
-582.88037859999986
 20
-693.81708120000008
 30
0.0
 40
1.5299689999999371
 50
0.0
 51
90.0
  0
ARC
  5
79D
  8
DATA
  6
CONTINUOUS
 62
     7
 10
-515.10264699999993
 20
-573.62010620000001
 30
0.0
 40
0.8899999999999863
 50
270.0
 51
0.0
  0
ARC
  5
79E
  8
DATA
  6
CONTINUOUS
 62
     7
 10
-470.27788438903571
 20
-544.33138841147002
 30
0.0
 40
53.36973144061232
 50
214.09596836755861
 51
217.80577976403231
  0
LINE
  5
79F
  8
DATA
  6
CONTINUOUS
 62
     7
 10
-568.39874640000005
 20
-593.1246232000002
 30
0.0
 11
-550.38455337354753
 21
-593.1246232000002
 31
0.0
  0
LINE
  5
7A0
  8
DATA
  6
CONTINUOUS
 62
     7
 10
-550.28493959999992
 20
-607.67074600000012
 30
0.0
 11
-543.74896022492237
 21
-606.79365603446081
 31
0.0
  0
LINE
  5
7A1
  8
DATA
  6
CONTINUOUS
 62
     7
 10
-542.64974999999993
 20
-607.24600000000021
 30
0.0
 11
-542.64974999999993
 21
-582.24600000000021
 31
0.0
  0
LINE
  5
7A2
  8
DATA
  6
CONTINUOUS
 62
     7
 10
-517.64975000000004
 20
-607.24600000000021
 30
0.0
 11
-517.64975000000004
 21
-582.24600000000021
 31
0.0
  0
ARC
  5
7A3
  8
DATA
  6
CONTINUOUS
 62
     7
 10
-554.32921611694155
 20
-584.07637362112246
 30
0.0
 40
9.4989677826083874
 50
309.00972420981401
 51
357.09617372908519
  0
ARC
  5
7A4
  8
DATA
  6
CONTINUOUS
 62
     7
 10
-540.8065811928202
 20
-585.18307233024541
 30
0.0
 40
4.0840457114964659
 50
95.440332030984635
 51
171.19029933323699
  0
ARC
  5
7A5
  8
DATA
  6
CONTINUOUS
 62
     7
 10
-535.17007749621985
 20
-601.55003670981785
 30
0.0
 40
21.30203634920262
 50
75.242405855266298
 51
106.4259656328507
  0
LINE
  5
7A6
  8
DATA
  6
CONTINUOUS
 62
     7
 10
-542.64974999999993
 20
-582.24600000000021
 30
0.0
 11
-517.64974999999993
 21
-582.24600000000021
 31
0.0
  0
LINE
  5
7A7
  8
DATA
  6
CONTINUOUS
 62
     7
 10
-542.64974999999993
 20
-587.24600000000021
 30
0.0
 11
-517.64974999999993
 21
-587.24600000000021
 31
0.0
  0
LINE
  5
7A8
  8
DATA
  6
CONTINUOUS
 62
     7
 10
-542.64974999999993
 20
-607.24600000000021
 30
0.0
 11
-517.64974999999993
 21
-607.24599999999987
 31
0.0
  0
TEXT
  5
7A9
  8
DATA
 62
     7
 10
-541.14975000000004
 20
-585.74600000000021
 30
0.0
 40
2.1484375
  1
CONTROL
 41
0.8
 11
-541.14975000000004
 21
-583.59756250000021
 31
0.0
 73
     3
  0
TEXT
  5
7AA
  8
DATA
 62
     7
 10
-521.65168785579237
 20
-585.74600000000021
 30
0.0
 40
2.1484375
  1
23
 41
0.8
 11
-521.65168785579237
 21
-583.59756250000021
 31
0.0
 73
     3
  0
ARC
  5
7AB
  8
DATA
  6
STYLE_11
 62
     7
 10
-567.97728699175605
 20
-636.35260280196042
 30
0.0
 40
10.678642411947269
 50
85.484358719388652
 51
99.183682166666259
  0
ARC
  5
7AC
  8
DATA
  6
STYLE_11
 62
     7
 10
-566.65230981349225
 20
-616.83604137262307
 30
0.0
 40
8.8842731608658863
 50
266.87556408756302
 51
277.4021860962464
  0
ARC
  5
7AD
  8
DATA
  6
STYLE_11
 62
     7
 10
-565.70593599040149
 20
-623.5972461388634
 30
0.0
 40
2.05859425495332
 50
275.52544733671959
 51
341.93046329829792
  0
ARC
  5
7AE
  8
DATA
  6
STYLE_11
 62
     7
 10
-610.86983149191099
 20
-605.53115894808604
 30
0.0
 40
50.697605487987794
 50
338.34946250738687
 51
340.15558981513158
  0
ARC
  5
7AF
  8
DATA
  6
STYLE_11
 62
     7
 10
-558.82668422086135
 20
-624.21650845627687
 30
0.0
 40
4.599076893140281
 50
113.851022852624
 51
161.2913631184949
  0
ARC
  5
7B0
  8
DATA
  6
STYLE_11
 62
     7
 10
-565.59488092424465
 20
-608.86785497024073
 30
0.0
 40
12.17559894381662
 50
293.77484537040169
 51
324.08647950858358
  0
ARC
  5
7B1
  8
DATA
  6
STYLE_11
 62
     7
 10
-547.24726071364125
 20
-622.89845439656222
 30
0.0
 40
10.930591770371541
 50
117.2697694266371
 51
140.9325638446789
  0
ARC
  5
7B2
  8
DATA
  6
STYLE_11
 62
     7
 10
-555.5799445631659
 20
-606.27235457641962
 30
0.0
 40
7.6684510252585749
 50
295.69174912903418
 51
318.49295417256599
  0
ARC
  5
7B3
  8
DATA
  6
STYLE_11
 62
     7
 10
-551.68771864202108
 20
-609.95878443703475
 30
0.0
 40
2.3177191680341802
 50
322.97809557773138
 51
23.671206660054281
  0
ARC
  5
7B4
  8
DATA
  6
STYLE_11
 62
     7
 10
-555.11734181716565
 20
-611.10321747585465
 30
0.0
 40
5.9273916372236046
 50
20.491250841353828
 51
35.386305661161963
  0
ARC
  5
7B5
  8
DATA
  6
STYLE_11
 62
     7
 10
-569.2873969326281
 20
-628.11883035470316
 30
0.0
 40
2.3414111729668781
 50
99.692526393268253
 51
165.82523941205179
  0
LINE
  5
7B6
  8
DATA
  6
CONTINUOUS
 62
     7
 10
-545.19682760000001
 20
-535.24109659999999
 30
0.0
 11
-515.10264699999993
 21
-535.24109659999999
 31
0.0
  0
CIRCLE
  5
7B7
  8
DATA
  6
CONTINUOUS
 62
     7
 10
-580.10238060000006
 20
-535.60479920000012
 30
0.0
 40
4.4272454000000598
  0
ARC
  5
7B8
  8
DATA
  6
CONTINUOUS
 62
     7
 10
-545.19682760000001
 20
-536.13109659999986
 30
0.0
 40
0.8899999999999863
 50
90.0
 51
180.0
  0
LINE
  5
7B9
  8
DATA
  6
CONTINUOUS
 62
     7
 10
-582.35142359999998
 20
-535.60478650000005
 30
0.0
 11
-577.85333759999969
 21
-535.60478650000005
 31
0.0
  0
LINE
  5
7BA
  8
DATA
  6
CONTINUOUS
 62
     7
 10
-580.10239329999979
 20
-537.85384220000014
 30
0.0
 11
-580.10239329999979
 21
-533.35575619999997
 31
0.0
  0
ARC
  5
7BB
  8
DATA
  6
CONTINUOUS
 62
     7
 10
-515.10264699999993
 20
-536.13109659999986
 30
0.0
 40
0.8899999999999863
 50
0.0
 51
90.0
  0
LINE
  5
7BC
  8
DATA
  6
CONTINUOUS
 62
     7
 10
-494.3231515999999
 20
-559.97546419999992
 30
0.0
 11
-494.3231515999999
 21
-549.77573860000007
 31
0.0
  0
LINE
  5
7BD
  8
DATA
  6
CONTINUOUS
 62
     7
 10
-491.90072819999989
 20
-549.77573860000007
 30
0.0
 11
-491.90072819999989
 21
-559.97546419999992
 31
0.0
  0
LINE
  5
7BE
  8
DATA
  6
CONTINUOUS
 62
     7
 10
-491.90072819999989
 20
-573.31472551493891
 30
0.0
 11
-491.90072819999989
 21
-565.50506959999996
 31
0.0
  0
LINE
  5
7BF
  8
DATA
  6
CONTINUOUS
 62
     7
 10
-478.94906500000002
 20
-695.3470248000001
 30
0.0
 11
-478.94906500000002
 21
-693.81708120000008
 31
0.0
  0
LINE
  5
7C0
  8
DATA
  6
CONTINUOUS
 62
     7
 10
-467.17916220000001
 20
-696.36701259999995
 30
0.0
 11
-467.17916220000001
 21
-643.64971900000012
 31
0.0
  0
LINE
  5
7C1
  8
DATA
  6
CONTINUOUS
 62
     7
 10
-468.19914999999992
 20
-695.34702479999999
 30
0.0
 11
-468.19914999999992
 21
-642.33846564397516
 31
0.0
  0
ARC
  5
7C2
  8
DATA
  6
CONTINUOUS
 62
     7
 10
-461.56974999999989
 20
-698.73000000000002
 30
0.0
 40
1.2699999999999809
 50
270.0
 51
0.0
  0
CIRCLE
  5
7C3
  8
DATA
  6
CONTINUOUS
 62
     7
 10
-480.19709399999988
 20
-673.72321740000007
 30
0.0
 40
4.427245399999947
  0
LINE
  5
7C4
  8
DATA
  6
CONTINUOUS
 62
     7
 10
-467.17916220000001
 20
-643.64971900000012
 30
0.0
 11
-467.17916220000001
 21
-563.25755060000017
 31
0.0
  0
ARC
  5
7C5
  8
DATA
  6
CONTINUOUS
 62
     7
 10
-530.14975000000004
 20
-649.29517380000004
 30
0.0
 40
43.932678200000048
 50
352.35685199999989
 51
7.6431480000000507
  0
LINE
  5
7C6
  8
DATA
  6
CONTINUOUS
 62
     7
 10
-490.55704279999992
 20
-684.57054140000014
 30
0.0
 11
-486.60739359999991
 21
-655.13834220000012
 31
0.0
  0
LINE
  5
7C7
  8
DATA
  6
CONTINUOUS
 62
     7
 10
-479.2785538
 20
-549.77573860000007
 30
0.0
 11
-479.2785538
 21
-559.97546419999992
 31
0.0
  0
LINE
  5
7C8
  8
DATA
  6
CONTINUOUS
 62
     7
 10
-481.70097720000001
 20
-549.77573860000007
 30
0.0
 11
-481.70097720000001
 21
-559.97546419999992
 31
0.0
  0
ARC
  5
7C9
  8
DATA
  6
CONTINUOUS
 62
     7
 10
-472.81154546614761
 20
-571.38245728755385
 30
0.0
 40
9.8862454925131757
 50
55.269357242216699
 51
130.07101811380619
  0
ARC
  5
7CA
  8
DATA
  6
CONTINUOUS
 62
     7
 10
-418.83692454865712
 20
-635.7442132496941
 30
0.0
 40
93.884421697950387
 50
129.9928433389193
 51
134.7341204649106
  0
ARC
  5
7CB
  8
DATA
  6
CONTINUOUS
 62
     7
 10
-480.44566025749413
 20
-675.62981577492849
 30
0.0
 40
38.019901727989357
 50
82.519712933039813
 51
106.01836229799611
  0
ARC
  5
7CC
  8
DATA
  6
CONTINUOUS
 62
     7
 10
-478.78207450595841
 20
-651.62296742724209
 30
0.0
 40
14.078361568815559
 50
34.495934052299638
 51
76.502052240384714
  0
LINE
  5
7CD
  8
DATA
  6
CONTINUOUS
 62
     7
 10
-482.44613699999979
 20
-673.7232047
 30
0.0
 11
-477.94805099999991
 21
-673.7232047
 31
0.0
  0
LINE
  5
7CE
  8
DATA
  6
CONTINUOUS
 62
     7
 10
-480.19710670000001
 20
-675.97226040000021
 30
0.0
 11
-480.19710670000001
 21
-671.47417440000004
 31
0.0
  0
ARC
  5
7CF
  8
DATA
  6
CONTINUOUS
 62
     7
 10
-470.78928960000002
 20
-687.18724940000004
 30
0.0
 40
1.5299690000000501
 50
90.0
 51
180.0
  0
ARC
  5
7D0
  8
DATA
  6
CONTINUOUS
 62
     7
 10
-473.08423039999991
 20
-691.5221403999999
 30
0.0
 40
0.7649718000000121
 50
270.0
 51
0.0
  0
ARC
  5
7D1
  8
DATA
  6
CONTINUOUS
 62
     7
 10
-477.41912139999999
 20
-693.81708120000008
 30
0.0
 40
1.5299690000000501
 50
90.0
 51
180.0
  0
LINE
  5
7D2
  8
DATA
  6
CONTINUOUS
 62
     7
 10
-472.31923319999993
 20
-691.5221403999999
 30
0.0
 11
-472.31923319999993
 21
-687.18724940000004
 31
0.0
  0
LINE
  5
7D3
  8
DATA
  6
CONTINUOUS
 62
     7
 10
-477.41912139999999
 20
-692.2871121999998
 30
0.0
 11
-473.08423039999991
 21
-692.2871121999998
 31
0.0
  0
LINE
  5
7D4
  8
DATA
  6
CONTINUOUS
 62
     7
 10
-470.78928960000002
 20
-685.65728039999988
 30
0.0
 11
-469.2593205999998
 21
-685.65728039999988
 31
0.0
  0
LINE
  5
7D5
  8
DATA
  6
CONTINUOUS
 62
     7
 10
-487.30757817040291
 20
-638.23426777837608
 30
0.0
 11
-486.60739359999991
 21
-643.45200540000008
 31
0.0
  0
LINE
  5
7D6
  8
DATA
  6
CONTINUOUS
 62
     7
 10
-469.2593205999998
 20
-685.65728039999988
 30
0.0
 11
-469.2593205999998
 21
-641.25390659663367
 31
0.0
  0
CIRCLE
  5
7D7
  8
DATA
  6
CONTINUOUS
 62
     7
 10
-480.19709399999988
 20
-535.60479920000012
 30
0.0
 40
4.427245399999947
  0
LINE
  5
7D8
  8
DATA
  6
CONTINUOUS
 62
     7
 10
-482.44613699999979
 20
-535.60478650000005
 30
0.0
 11
-477.94805099999991
 21
-535.60478650000005
 31
0.0
  0
LINE
  5
7D9
  8
DATA
  6
CONTINUOUS
 62
     7
 10
-480.19710670000001
 20
-537.85384220000014
 30
0.0
 11
-480.19710670000001
 21
-533.35575619999997
 31
0.0
  0
LINE
  5
7DA
  8
DATA
  6
CONTINUOUS
 62
     7
 10
-592.10035000000016
 20
-513.98099180000031
 30
0.0
 11
-468.19914999999992
 21
-513.98099180000031
 31
0.0
  0
LINE
  5
7DB
  8
DATA
  6
CONTINUOUS
 62
     7
 10
-593.12031239999988
 20
-512.96100400000012
 30
0.0
 11
-467.17916220000001
 21
-512.96100400000012
 31
0.0
  0
LINE
  5
7DC
  8
DATA
  6
CONTINUOUS
 62
     7
 10
-461.56974999999989
 20
-509.24600000000009
 30
0.0
 11
-598.72975000000019
 21
-509.24600000000009
 31
0.0
  0
LINE
  5
7DD
  8
DATA
  6
CONTINUOUS
 62
     7
 10
-568.39874640000005
 20
-516.62657960000001
 30
0.0
 11
-491.90072819999989
 21
-516.62657960000001
 31
0.0
  0
LINE
  5
7DE
  8
DATA
  6
CONTINUOUS
 62
     7
 10
-582.88037860000009
 20
-517.04090440000027
 30
0.0
 11
-587.2152441999998
 21
-517.04090440000027
 31
0.0
  0
ARC
  5
7DF
  8
DATA
  6
CONTINUOUS
 62
     7
 10
-589.51018499999986
 20
-522.14076720000003
 30
0.0
 40
1.5299690000000501
 50
270.0
 51
0.0
  0
ARC
  5
7E0
  8
DATA
  6
CONTINUOUS
 62
     7
 10
-587.2152441999998
 20
-517.80587620000017
 30
0.0
 40
0.7649718000000121
 50
90.0
 51
180.0
  0
LINE
  5
7E1
  8
DATA
  6
CONTINUOUS
 62
     7
 10
-587.98024140000018
 20
-517.80587620000017
 30
0.0
 11
-587.98024140000018
 21
-522.14076720000003
 31
0.0
  0
LINE
  5
7E2
  8
DATA
  6
CONTINUOUS
 62
     7
 10
-591.04015400000003
 20
-523.67073620000019
 30
0.0
 11
-589.51018499999986
 21
-523.67073620000019
 31
0.0
  0
ARC
  5
7E3
  8
DATA
  6
CONTINUOUS
 62
     7
 10
-582.88037860000009
 20
-515.51093540000011
 30
0.0
 40
1.5299690000000501
 50
270.0
 51
0.0
  0
LINE
  5
7E4
  8
DATA
  6
CONTINUOUS
 62
     7
 10
-581.35040960000015
 20
-513.98099180000031
 30
0.0
 11
-581.35040960000015
 21
-515.51093540000011
 31
0.0
  0
ARC
  5
7E5
  8
DATA
  6
CONTINUOUS
 62
     7
 10
-598.72975000000019
 20
-510.51600000000002
 30
0.0
 40
1.2699999999999809
 50
90.0
 51
180.0
  0
ARC
  5
7E6
  8
DATA
  6
CONTINUOUS
 62
     7
 10
-477.41912139999999
 20
-515.51093540000011
 30
0.0
 40
1.5299689999999371
 50
180.0
 51
270.0
  0
ARC
  5
7E7
  8
DATA
  6
CONTINUOUS
 62
     7
 10
-470.78928960000002
 20
-522.14076720000003
 30
0.0
 40
1.5299689999999371
 50
180.0
 51
270.0
  0
ARC
  5
7E8
  8
DATA
  6
CONTINUOUS
 62
     7
 10
-473.08423039999991
 20
-517.80587620000017
 30
0.0
 40
0.7649718000000121
 50
0.0
 51
90.0
  0
LINE
  5
7E9
  8
DATA
  6
CONTINUOUS
 62
     7
 10
-478.94906500000002
 20
-513.98099180000031
 30
0.0
 11
-478.94906500000002
 21
-515.51093540000011
 31
0.0
  0
LINE
  5
7EA
  8
DATA
  6
CONTINUOUS
 62
     7
 10
-477.41912139999999
 20
-517.04090440000027
 30
0.0
 11
-473.08423039999991
 21
-517.04090440000027
 31
0.0
  0
LINE
  5
7EB
  8
DATA
  6
CONTINUOUS
 62
     7
 10
-472.3192332000001
 20
-517.80587620000017
 30
0.0
 11
-472.3192332000001
 21
-522.14076720000003
 31
0.0
  0
LINE
  5
7EC
  8
DATA
  6
CONTINUOUS
 62
     7
 10
-470.78928960000002
 20
-523.67073620000019
 30
0.0
 11
-469.25932060000008
 21
-523.67073620000019
 31
0.0
  0
ARC
  5
7ED
  8
DATA
  6
CONTINUOUS
 62
     7
 10
-461.56974999999989
 20
-510.51600000000002
 30
0.0
 40
1.2699999999999809
 50
0.0
 51
90.0
  0
ARC
  5
7EE
  8
DATA
  6
CONTINUOUS
 62
     7
 10
-530.14975767177884
 20
-44.476000000000802
 30
0.0
 40
255.52399999999989
 50
255.7332311960613
 51
284.26677823053558
  0
ARC
  5
7EF
  8
DATA
  6
CONTINUOUS
 62
     7
 10
-530.14976505324023
 20
-42.169705400000332
 30
0.0
 40
255.52399999999989
 50
256.6702162962228
 51
283.3297911749458
  0
ARC
  5
7F0
  8
DATA
  6
CONTINUOUS
 62
     7
 10
-500.55381397612189
 20
-200.84193020000001
 30
0.0
 40
12.49999999999995
 50
22.30000000000031
 51
89.999999999999986
  0
LINE
  5
7F1
  8
DATA
  6
CONTINUOUS
 62
     7
 10
-559.74568602387774
 20
-188.34193020000009
 30
0.0
 11
-500.55381397612189
 21
-188.34193020000009
 31
0.0
  0
LINE
  5
7F2
  8
DATA
  6
CONTINUOUS
 62
     7
 10
-599.99974999999995
 20
-266.049598
 30
0.0
 11
-571.31080750369995
 21
-196.0987282058874
 31
0.0
  0
LINE
  5
7F3
  8
DATA
  6
CONTINUOUS
 62
     7
 10
-598.61850077936072
 20
-279.88793059799173
 30
0.0
 11
-599.99975000000006
 21
-266.049598
 31
0.0
  0
ARC
  5
7F4
  8
DATA
  6
CONTINUOUS
 62
     7
 10
-586.18030615484554
 20
-278.64643372619622
 30
0.0
 40
12.50000000000008
 50
185.7000000000003
 51
256.67021629622292
  0
LINE
  5
7F5
  8
DATA
  6
CONTINUOUS
 62
     7
 10
-593.12031239999988
 20
-292.1193399330989
 30
0.0
 11
-593.12031239999988
 21
-289.04289049363462
 31
0.0
  0
ARC
  5
7F6
  8
DATA
  6
CONTINUOUS
 62
     7
 10
-559.74568602387774
 20
-200.84193020000001
 30
0.0
 40
12.499999999999879
 50
90.0
 51
157.6999999999997
  0
LINE
  5
7F7
  8
DATA
  6
CONTINUOUS
 62
     7
 10
-488.98869249629968
 20
-196.0987282058874
 30
0.0
 11
-460.29974999999979
 21
-266.049598
 31
0.0
  0
LINE
  5
7F8
  8
DATA
  6
CONTINUOUS
 62
     7
 10
-461.68099849138451
 20
-279.88792329180347
 30
0.0
 11
-460.29974999999979
 21
-266.049598
 31
0.0
  0
ARC
  5
7F9
  8
DATA
  6
CONTINUOUS
 62
     7
 10
-474.11919311589998
 20
-278.64642642000803
 30
0.0
 40
12.499999999999959
 50
283.32979117494608
 51
354.30000000000018
  0
LINE
  5
7FA
  8
DATA
  6
CONTINUOUS
 62
     7
 10
-467.17916220000012
 20
-292.11932957285541
 30
0.0
 11
-467.17916220000012
 21
-289.04286671880038
 31
0.0
  0
LINE
  5
7FB
  8
DATA
  6
CONTINUOUS
 62
     7
 10
-44.049592799999928
 20
-513.33824545716107
 30
0.0
 11
-44.049592799999807
 21
-695.98977114283855
 31
0.0
  0
LINE
  5
7FC
  8
DATA
  6
CONTINUOUS
 62
     7
 10
-16.049598000000181
 20
-511.8711451714363
 30
0.0
 11
-16.049597999999961
 21
-697.37485482856368
 31
0.0
  0
LINE
  5
7FD
  8
DATA
  6
CONTINUOUS
 62
     7
 10
-36.877599260709999
 20
-510.04893197506118
 30
0.0
 11
-36.877599260709772
 21
-699.19706802493886
 31
0.0
  0
LINE
  5
7FE
  8
DATA
  6
CONTINUOUS
 62
     7
 10
-50.000000000000021
 20
-694.79701259999956
 30
0.0
 11
-50.000000000000021
 21
-514.53100400000005
 31
0.0
  0
LINE
  5
7FF
  8
DATA
  6
CONTINUOUS
 62
     7
 10
61.658069800000007
 20
-689.13767780560124
 30
0.0
 11
61.658069800000007
 21
-520.10832219439885
 31
0.0
  0
LINE
  5
800
  8
DATA
  6
CONTINUOUS
 62
     7
 10
-45.986870943342772
 20
-699.99402568120593
 30
0.0
 11
60.224904256657268
 21
-690.70170348680699
 31
0.0
  0
ARC
  5
801
  8
DATA
  6
CONTINUOUS
 62
     7
 10
-48.429999999999971
 20
-694.79701259999956
 30
0.0
 40
1.57000000000005
 50
180.0
 51
275.00003524633422
  0
ARC
  5
802
  8
DATA
  6
CONTINUOUS
 62
     7
 10
-46.12370540000007
 20
-698.42999999999995
 30
0.0
 40
1.57000000000005
 50
180.00000000000409
 51
274.99999782188968
  0
LINE
  5
803
  8
DATA
  6
CONTINUOUS
 62
     7
 10
-48.293164521752843
 20
-696.36103819182802
 30
0.0
 11
-44.049592799999928
 21
-695.98977114283855
 31
0.0
  0
LINE
  5
804
  8
DATA
  6
CONTINUOUS
 62
     7
 10
-47.693705399999892
 20
-698.42999999999995
 30
0.0
 11
-47.693705399999892
 21
-696.30859194283869
 31
0.0
  0
ARC
  5
805
  8
DATA
  6
CONTINUOUS
 62
     7
 10
60.088069799999957
 20
-689.13767780560124
 30
0.0
 40
1.569999999999919
 50
274.99999782189008
 51
0.0
  0
LINE
  5
806
  8
DATA
  6
CONTINUOUS
 62
     7
 10
-45.986870943342772
 20
-509.25197431879428
 30
0.0
 11
60.224904256657268
 21
-518.54429651319299
 31
0.0
  0
ARC
  5
807
  8
DATA
  6
CONTINUOUS
 62
     7
 10
-46.12370540000007
 20
-510.81599999999992
 30
0.0
 40
1.570000000000032
 50
85.000002178110293
 51
180.0
  0
ARC
  5
808
  8
DATA
  6
CONTINUOUS
 62
     7
 10
-48.429999999999971
 20
-514.53100400000005
 30
0.0
 40
1.5700000000000029
 50
84.999964753665424
 51
180.0
  0
LINE
  5
809
  8
DATA
  6
CONTINUOUS
 62
     7
 10
-48.293164521752949
 20
-512.96697840817217
 30
0.0
 11
-44.049592799999928
 21
-513.33824545716107
 31
0.0
  0
LINE
  5
80A
  8
DATA
  6
CONTINUOUS
 62
     7
 10
-47.693705400000127
 20
-513.01942465716138
 30
0.0
 11
-47.693705399999892
 21
-510.81599999999992
 31
0.0
  0
ARC
  5
80B
  8
DATA
  6
CONTINUOUS
 62
     7
 10
60.088069799999957
 20
-520.10832219439885
 30
0.0
 40
1.57000000000005
 50
0.0
 51
85.000002178110265
  0
ARC
  5
80C
  8
DATA
  6
CONTINUOUS
 62
     7
 10
-490.8997500000001
 20
208.5367100000004
 30
0.0
 40
11.09999999999998
 50
16.217194563217362
 51
343.78280543678369
  0
LINE
  5
80D
  8
DATA
  6
CONTINUOUS
 62
     7
 10
-599.99975000000006
 20
171.7867100000004
 30
0.0
 11
-599.99975000000006
 21
245.2867100000004
 31
0.0
  0
LINE
  5
80E
  8
DATA
  6
CONTINUOUS
 62
     7
 10
-560.49975000000018
 20
245.2867100000004
 30
0.0
 11
-560.49975000000018
 21
171.7867100000004
 31
0.0
  0
ARC
  5
80F
  8
DATA
  6
CONTINUOUS
 62
     7
 10
-580.24975000000018
 20
178.0367100000004
 30
0.0
 40
9.75
 50
0.0
 51
180.0
  0
LINE
  5
810
  8
DATA
  6
CONTINUOUS
 62
     7
 10
-560.49975000000018
 20
171.7867100000004
 30
0.0
 11
-599.99975000000006
 21
171.7867100000004
 31
0.0
  0
LINE
  5
811
  8
DATA
  6
CONTINUOUS
 62
     7
 10
-589.99975000000018
 20
171.7867100000004
 30
0.0
 11
-589.99975000000018
 21
178.0367100000004
 31
0.0
  0
CIRCLE
  5
812
  8
DATA
  6
CONTINUOUS
 62
     7
 10
-580.24975000000018
 20
178.5367100000004
 30
0.0
 40
3.3999999999999768
  0
LINE
  5
813
  8
DATA
  6
CONTINUOUS
 62
     7
 10
-570.49975000000006
 20
171.7867100000004
 30
0.0
 11
-570.49975000000006
 21
178.0367100000004
 31
0.0
  0
ARC
  5
814
  8
DATA
  6
CONTINUOUS
 62
     7
 10
-580.24975000000018
 20
305.88670999999999
 30
0.0
 40
11.099999999999939
 50
106.2171945632186
 51
73.782805436783931
  0
LINE
  5
815
  8
DATA
  6
CONTINUOUS
 62
     7
 10
-599.99975000000006
 20
245.2867100000004
 30
0.0
 11
-560.49975000000018
 21
245.2867100000004
 31
0.0
  0
ARC
  5
816
  8
DATA
  6
CONTINUOUS
 62
     7
 10
-580.24975000000018
 20
239.03671000000011
 30
0.0
 40
9.75
 50
180.0
 51
0.0
  0
CIRCLE
  5
817
  8
DATA
  6
CONTINUOUS
 62
     7
 10
-580.24975000000018
 20
208.53671000000011
 30
0.0
 40
11.100000000000019
  0
LINE
  5
818
  8
DATA
  6
CONTINUOUS
 62
     7
 10
-589.99975000000018
 20
245.2867100000004
 30
0.0
 11
-589.99975000000018
 21
239.03671000000011
 31
0.0
  0
CIRCLE
  5
819
  8
DATA
  6
CONTINUOUS
 62
     7
 10
-580.24975000000018
 20
238.5367100000004
 30
0.0
 40
3.3999999999999768
  0
LINE
  5
81A
  8
DATA
  6
CONTINUOUS
 62
     7
 10
-570.49975000000006
 20
245.2867100000004
 30
0.0
 11
-570.49975000000006
 21
239.03671000000011
 31
0.0
  0
LINE
  5
81B
  8
DATA
  6
CONTINUOUS
 62
     7
 10
-572.7497500000004
 20
335.48671000000019
 30
0.0
 11
-572.7497500000004
 21
338.1859256582789
 31
0.0
  0
LINE
  5
81C
  8
DATA
  6
CONTINUOUS
 62
     7
 10
-587.74975000000018
 20
335.48671000000019
 30
0.0
 11
-587.74975000000018
 21
338.18592565827942
 31
0.0
  0
LINE
  5
81D
  8
DATA
  6
CONTINUOUS
 62
     7
 10
-583.34975000000054
 20
329.38671000000051
 30
0.0
 11
-583.34975000000054
 21
316.54504007557972
 31
0.0
  0
LINE
  5
81E
  8
DATA
  6
CONTINUOUS
 62
     7
 10
-577.14975000000015
 20
316.54504007557972
 30
0.0
 11
-577.14975000000015
 21
329.38671000000028
 31
0.0
  0
LINE
  5
81F
  8
DATA
  6
CONTINUOUS
 62
     7
 10
-585.09949226119284
 20
329.38671000000028
 30
0.0
 11
-585.09949226119284
 21
334.18671000000052
 31
0.0
  0
LINE
  5
820
  8
DATA
  6
CONTINUOUS
 62
     7
 10
-575.40000773880706
 20
329.38671000000028
 30
0.0
 11
-575.40000773880706
 21
334.18671000000052
 31
0.0
  0
LINE
  5
821
  8
DATA
  6
CONTINUOUS
 62
     7
 10
-580.24975000000018
 20
329.38671000000028
 30
0.0
 11
-580.24975000000018
 21
334.18671000000052
 31
0.0
  0
LINE
  5
822
  8
DATA
  6
CONTINUOUS
 62
     7
 10
-585.09949226119284
 20
329.38671000000028
 30
0.0
 11
-575.40000773880706
 21
329.38671000000028
 31
0.0
  0
LINE
  5
823
  8
DATA
  6
CONTINUOUS
 62
     7
 10
-587.74975000000018
 20
335.48671000000019
 30
0.0
 11
-572.74975000000006
 21
335.48671000000019
 31
0.0
  0
LINE
  5
824
  8
DATA
  6
CONTINUOUS
 62
     7
 10
-585.64975000000015
 20
334.18671000000052
 30
0.0
 11
-574.84975000000009
 21
334.18671000000052
 31
0.0
  0
LINE
  5
825
  8
DATA
  6
CONTINUOUS
 62
     7
 10
-585.64975000000015
 20
334.18671000000052
 30
0.0
 11
-585.64975000000015
 21
335.48671000000058
 31
0.0
  0
LINE
  5
826
  8
DATA
  6
CONTINUOUS
 62
     7
 10
-577.2497500000004
 20
334.18671000000052
 30
0.0
 11
-577.24975000000006
 21
335.48671000000058
 31
0.0
  0
LINE
  5
827
  8
DATA
  6
CONTINUOUS
 62
     7
 10
-574.84975000000043
 20
334.18671000000052
 30
0.0
 11
-574.84975000000043
 21
335.48671000000019
 31
0.0
  0
LINE
  5
828
  8
DATA
  6
CONTINUOUS
 62
     7
 10
-599.99975000000006
 20
346.7867100000006
 30
0.0
 11
-560.49974999999995
 21
346.7867100000006
 31
0.0
  0
ARC
  5
829
  8
DATA
  6
CONTINUOUS
 62
     7
 10
-580.24975000000018
 20
369.01357567164308
 30
0.0
 40
31.726865671642571
 50
232.0756085708224
 51
307.9243914291776
  0
LINE
  5
82A
  8
DATA
  6
CONTINUOUS
 62
     7
 10
-589.99975000000018
 20
342.38671000000051
 30
0.0
 11
-570.49975000000006
 21
342.38671000000051
 31
0.0
  0
LINE
  5
82B
  8
DATA
  6
CONTINUOUS
 62
     7
 10
-599.74975000000006
 20
343.98671000000019
 30
0.0
 11
-599.99975000000006
 21
346.7867100000006
 31
0.0
  0
LINE
  5
82C
  8
DATA
  6
CONTINUOUS
 62
     7
 10
-589.99975000000018
 20
338.82199563106821
 30
0.0
 11
-589.99975000000018
 21
342.38671000000051
 31
0.0
  0
LINE
  5
82D
  8
DATA
  6
CONTINUOUS
 62
     7
 10
-560.74975000000006
 20
343.98671000000019
 30
0.0
 11
-560.49974999999995
 21
346.7867100000006
 31
0.0
  0
LINE
  5
82E
  8
DATA
  6
CONTINUOUS
 62
     7
 10
-570.49975000000006
 20
338.82199563106821
 30
0.0
 11
-570.49975000000006
 21
342.38671000000051
 31
0.0
  0
LINE
  5
82F
  8
DATA
  6
CONTINUOUS
 62
     7
 10
-583.34975000000054
 20
316.54504007557972
 30
0.0
 11
-577.14975000000015
 21
316.54504007557972
 31
0.0
  0
LINE
  5
830
  8
DATA
  6
CONTINUOUS
 62
     7
 10
-459.49975000000001
 20
228.9043439050856
 30
0.0
 11
-459.49975000000012
 21
188.16907609491531
 31
0.0
  0
LINE
  5
831
  8
DATA
  6
CONTINUOUS
 62
     7
 10
-449.99975000000001
 20
245.28671000000051
 30
0.0
 11
-449.99975000000001
 21
171.7867100000004
 31
0.0
  0
LINE
  5
832
  8
DATA
  6
CONTINUOUS
 62
     7
 10
-452.79975000000002
 20
245.28671000000051
 30
0.0
 11
-452.79975000000002
 21
171.7867100000004
 31
0.0
  0
LINE
  5
833
  8
DATA
  6
CONTINUOUS
 62
     7
 10
-459.44160848825311
 20
187.4087901736458
 30
0.0
 11
-458.05789151174707
 21
178.414629826355
 31
0.0
  0
ARC
  5
834
  8
DATA
  6
CONTINUOUS
 62
     7
 10
-454.49975000000012
 20
188.16907609491531
 30
0.0
 40
5.0
 50
180.0
 51
188.74616226255591
  0
LINE
  5
835
  8
DATA
  6
CONTINUOUS
 62
     7
 10
-457.99975000000012
 20
171.7867100000004
 30
0.0
 11
-449.99975000000001
 21
171.7867100000004
 31
0.0
  0
LINE
  5
836
  8
DATA
  6
CONTINUOUS
 62
     7
 10
-457.99975000000012
 20
177.654343905085
 30
0.0
 11
-457.99975000000012
 21
171.7867100000004
 31
0.0
  0
ARC
  5
837
  8
DATA
  6
CONTINUOUS
 62
     7
 10
-462.99974999999989
 20
177.654343905085
 30
0.0
 40
5.0
 50
0.0
 51
8.7461622625560231
  0
LINE
  5
838
  8
DATA
  6
CONTINUOUS
 62
     7
 10
-458.05789151174707
 20
238.658790173646
 30
0.0
 11
-459.44160848825311
 21
229.66462982635559
 31
0.0
  0
LINE
  5
839
  8
DATA
  6
CONTINUOUS
 62
     7
 10
-467.39974999999993
 20
213.3864522611932
 30
0.0
 11
-462.59975000000009
 21
213.3864522611932
 31
0.0
  0
LINE
  5
83A
  8
DATA
  6
CONTINUOUS
 62
     7
 10
-467.39974999999993
 20
203.68696773880751
 30
0.0
 11
-462.59975000000009
 21
203.68696773880751
 31
0.0
  0
LINE
  5
83B
  8
DATA
  6
CONTINUOUS
 62
     7
 10
-467.39974999999993
 20
208.5367100000004
 30
0.0
 11
-462.59975000000009
 21
208.5367100000004
 31
0.0
  0
LINE
  5
83C
  8
DATA
  6
CONTINUOUS
 62
     7
 10
-480.24141992442071
 20
211.63671000000051
 30
0.0
 11
-467.39974999999993
 21
211.63671000000051
 31
0.0
  0
LINE
  5
83D
  8
DATA
  6
CONTINUOUS
 62
     7
 10
-480.24141992442071
 20
205.4367100000004
 30
0.0
 11
-467.39974999999993
 21
205.4367100000004
 31
0.0
  0
LINE
  5
83E
  8
DATA
  6
CONTINUOUS
 62
     7
 10
-467.39974999999993
 20
213.3864522611932
 30
0.0
 11
-467.39974999999993
 21
203.68696773880751
 31
0.0
  0
LINE
  5
83F
  8
DATA
  6
CONTINUOUS
 62
     7
 10
-480.24141992442071
 20
205.4367100000004
 30
0.0
 11
-480.24141992442071
 21
211.63671000000051
 31
0.0
  0
ARC
  5
840
  8
DATA
  6
CONTINUOUS
 62
     7
 10
-454.49975000000001
 20
228.9043439050856
 30
0.0
 40
5.0000000000000844
 50
171.2538377374442
 51
180.0
  0
LINE
  5
841
  8
DATA
  6
CONTINUOUS
 62
     7
 10
-461.29975000000002
 20
216.03671000000051
 30
0.0
 11
-459.49975000000001
 21
216.03671000000051
 31
0.0
  0
LINE
  5
842
  8
DATA
  6
CONTINUOUS
 62
     7
 10
-461.29975000000002
 20
201.0367100000006
 30
0.0
 11
-459.49975000000012
 21
201.0367100000006
 31
0.0
  0
LINE
  5
843
  8
DATA
  6
CONTINUOUS
 62
     7
 10
-461.29975000000002
 20
216.03671000000051
 30
0.0
 11
-461.29975000000002
 21
201.0367100000004
 31
0.0
  0
LINE
  5
844
  8
DATA
  6
CONTINUOUS
 62
     7
 10
-462.59974999999991
 20
213.9367100000004
 30
0.0
 11
-462.59975000000009
 21
203.13671000000051
 31
0.0
  0
LINE
  5
845
  8
DATA
  6
CONTINUOUS
 62
     7
 10
-462.59974999999991
 20
213.9367100000004
 30
0.0
 11
-461.29974999999979
 21
213.9367100000004
 31
0.0
  0
LINE
  5
846
  8
DATA
  6
CONTINUOUS
 62
     7
 10
-462.59975000000009
 20
205.53671000000051
 30
0.0
 11
-461.29974999999979
 21
205.53671000000051
 31
0.0
  0
LINE
  5
847
  8
DATA
  6
CONTINUOUS
 62
     7
 10
-462.59975000000009
 20
203.13671000000051
 30
0.0
 11
-461.29975000000002
 21
203.13671000000051
 31
0.0
  0
LINE
  5
848
  8
DATA
  6
CONTINUOUS
 62
     7
 10
-457.99975000000012
 20
245.28671000000051
 30
0.0
 11
-449.99975000000001
 21
245.28671000000051
 31
0.0
  0
LINE
  5
849
  8
DATA
  6
CONTINUOUS
 62
     7
 10
-457.99975000000012
 20
245.28671000000051
 30
0.0
 11
-457.99975000000012
 21
239.41907609491551
 31
0.0
  0
ARC
  5
84A
  8
DATA
  6
CONTINUOUS
 62
     7
 10
-462.99974999999989
 20
239.41907609491551
 30
0.0
 40
4.9999999999999698
 50
351.25383773744392
 51
0.0
  0
LINE
  5
84B
  8
DATA
  6
CONTINUOUS
 62
     7
 10
-399.99975000000001
 20
171.7867100000004
 30
0.0
 11
-399.99975000000012
 21
245.28671000000051
 31
0.0
  0
LINE
  5
84C
  8
DATA
  6
CONTINUOUS
 62
     7
 10
-396.69975000000011
 20
205.9367100000002
 30
0.0
 11
-396.69975000000011
 21
176.08671000000049
 31
0.0
  0
ARC
  5
84D
  8
DATA
  6
CONTINUOUS
 62
     7
 10
-380.24975000000012
 20
178.53671000000051
 30
0.0
 40
12.75
 50
100.8997354540906
 51
180.0
  0
LINE
  5
84E
  8
DATA
  6
CONTINUOUS
 62
     7
 10
-360.49975000000012
 20
245.28671000000051
 30
0.0
 11
-360.49975000000012
 21
171.7867100000004
 31
0.0
  0
LINE
  5
84F
  8
DATA
  6
CONTINUOUS
 62
     7
 10
-363.79975000000002
 20
205.9367100000002
 30
0.0
 11
-363.79975000000002
 21
176.08671000000049
 31
0.0
  0
ARC
  5
850
  8
DATA
  6
CONTINUOUS
 62
     7
 10
-380.24975000000012
 20
178.53671000000051
 30
0.0
 40
12.75
 50
0.0
 51
79.100264545908374
  0
LINE
  5
851
  8
DATA
  6
CONTINUOUS
 62
     7
 10
-360.49975000000012
 20
171.7867100000004
 30
0.0
 11
-399.99975000000001
 21
171.7867100000004
 31
0.0
  0
CIRCLE
  5
852
  8
DATA
  6
CONTINUOUS
 62
     7
 10
-380.24975000000012
 20
178.5367100000004
 30
0.0
 40
3.3999999999999768
  0
ARC
  5
853
  8
DATA
  6
CONTINUOUS
 62
     7
 10
-393.99975000000001
 20
176.08671000000049
 30
0.0
 40
1.0
 50
270.0
 51
0.0
  0
LINE
  5
854
  8
DATA
  6
CONTINUOUS
 62
     7
 10
-395.69974999999999
 20
175.08671000000029
 30
0.0
 11
-393.99975000000001
 21
175.08671000000029
 31
0.0
  0
ARC
  5
855
  8
DATA
  6
CONTINUOUS
 62
     7
 10
-395.69974999999999
 20
176.08671000000049
 30
0.0
 40
1.0
 50
180.0
 51
270.0
  0
LINE
  5
856
  8
DATA
  6
CONTINUOUS
 62
     7
 10
-392.99975000000018
 20
176.08671000000049
 30
0.0
 11
-392.99975000000018
 21
178.53671000000051
 31
0.0
  0
ARC
  5
857
  8
DATA
  6
CONTINUOUS
 62
     7
 10
-364.79975000000002
 20
176.08671000000049
 30
0.0
 40
1.0
 50
270.0
 51
0.0
  0
LINE
  5
858
  8
DATA
  6
CONTINUOUS
 62
     7
 10
-366.49975000000012
 20
175.08671000000061
 30
0.0
 11
-364.79975000000002
 21
175.08671000000061
 31
0.0
  0
ARC
  5
859
  8
DATA
  6
CONTINUOUS
 62
     7
 10
-366.49975000000012
 20
176.08671000000049
 30
0.0
 40
1.0
 50
180.0
 51
270.0
  0
LINE
  5
85A
  8
DATA
  6
CONTINUOUS
 62
     7
 10
-367.49975000000018
 20
176.08671000000049
 30
0.0
 11
-367.49975000000018
 21
178.53671000000051
 31
0.0
  0
LINE
  5
85B
  8
DATA
  6
CONTINUOUS
 62
     7
 10
-399.99975000000012
 20
245.28671000000051
 30
0.0
 11
-360.49975000000012
 21
245.28671000000051
 31
0.0
  0
ARC
  5
85C
  8
DATA
  6
CONTINUOUS
 62
     7
 10
-377.6497500000001
 20
192.0386543044313
 30
0.0
 40
1.0
 50
180.0
 51
259.10026454590582
  0
CIRCLE
  5
85D
  8
DATA
  6
CONTINUOUS
 62
     7
 10
-380.24975000000012
 20
238.5367100000004
 30
0.0
 40
3.3999999999999768
  0
ARC
  5
85E
  8
DATA
  6
CONTINUOUS
 62
     7
 10
-377.6497500000001
 20
225.03476569556489
 30
0.0
 40
0.9999999999999225
 50
100.8997354540877
 51
180.0
  0
CIRCLE
  5
85F
  8
DATA
  6
CONTINUOUS
 62
     7
 10
-380.24975000000012
 20
208.5367100000004
 30
0.0
 40
8.2250000000000227
  0
ARC
  5
860
  8
DATA
  6
CONTINUOUS
 62
     7
 10
-377.6497500000001
 20
220.7633203233878
 30
0.0
 40
1.0
 50
180.0
 51
257.9948271692424
  0
ARC
  5
861
  8
DATA
  6
CONTINUOUS
 62
     7
 10
-377.6497500000001
 20
196.31009967660981
 30
0.0
 40
1.0000000000000611
 50
102.00517283075121
 51
180.0
  0
LINE
  5
862
  8
DATA
  6
CONTINUOUS
 62
     7
 10
-383.0497500000003
 20
203.68696773880751
 30
0.0
 11
-377.44975000000011
 21
203.68696773880751
 31
0.0
  0
LINE
  5
863
  8
DATA
  6
CONTINUOUS
 62
     7
 10
-377.44975000000011
 20
213.3864522611932
 30
0.0
 11
-383.0497500000003
 21
213.3864522611932
 31
0.0
  0
CIRCLE
  5
864
  8
DATA
  6
CONTINUOUS
 62
     7
 10
-380.24975000000012
 20
208.5367100000004
 30
0.0
 40
3.1000000000000218
  0
LINE
  5
865
  8
DATA
  6
CONTINUOUS
 62
     7
 10
-381.84975000000009
 20
196.31009967660961
 30
0.0
 11
-381.84975000000009
 21
192.03865430443221
 31
0.0
  0
LINE
  5
866
  8
DATA
  6
CONTINUOUS
 62
     7
 10
-378.64975000000032
 20
196.31009967660981
 30
0.0
 11
-378.64975000000032
 21
192.0386543044313
 31
0.0
  0
ARC
  5
867
  8
DATA
  6
CONTINUOUS
 62
     7
 10
-382.84975000000031
 20
192.03865430443221
 30
0.0
 40
0.9999999999999442
 50
280.89973545409413
 51
0.0
  0
ARC
  5
868
  8
DATA
  6
CONTINUOUS
 62
     7
 10
-380.24975000000012
 20
238.5367100000004
 30
0.0
 40
12.75
 50
180.0
 51
259.10026454591127
  0
ARC
  5
869
  8
DATA
  6
CONTINUOUS
 62
     7
 10
-380.24975000000012
 20
208.5367100000004
 30
0.0
 40
11.499999999999909
 50
102.0051728307517
 51
167.99482716924589
  0
ARC
  5
86A
  8
DATA
  6
CONTINUOUS
 62
     7
 10
-380.24975000000012
 20
208.5367100000004
 30
0.0
 40
11.500000000000011
 50
192.0051728307528
 51
257.99482716924763
  0
LINE
  5
86B
  8
DATA
  6
CONTINUOUS
 62
     7
 10
-392.47636032339028
 20
206.9367100000004
 30
0.0
 11
-395.69974999999999
 21
206.9367100000004
 31
0.0
  0
LINE
  5
86C
  8
DATA
  6
CONTINUOUS
 62
     7
 10
-392.47636032338931
 20
210.13671000000051
 30
0.0
 11
-395.69974999999999
 21
210.13671000000051
 31
0.0
  0
ARC
  5
86D
  8
DATA
  6
CONTINUOUS
 62
     7
 10
-393.99975000000018
 20
240.9867100000007
 30
0.0
 40
1.0
 50
0.0
 51
90.0
  0
LINE
  5
86E
  8
DATA
  6
CONTINUOUS
 62
     7
 10
-396.69975000000011
 20
240.9867100000007
 30
0.0
 11
-396.69975000000011
 21
211.13671000000031
 31
0.0
  0
ARC
  5
86F
  8
DATA
  6
CONTINUOUS
 62
     7
 10
-395.69974999999999
 20
240.9867100000007
 30
0.0
 40
1.0
 50
90.0
 51
180.0
  0
LINE
  5
870
  8
DATA
  6
CONTINUOUS
 62
     7
 10
-395.69974999999999
 20
241.98671000000039
 30
0.0
 11
-393.99975000000018
 21
241.98671000000039
 31
0.0
  0
ARC
  5
871
  8
DATA
  6
CONTINUOUS
 62
     7
 10
-395.69974999999999
 20
205.9367100000002
 30
0.0
 40
1.0
 50
90.0
 51
180.0
  0
ARC
  5
872
  8
DATA
  6
CONTINUOUS
 62
     7
 10
-395.69974999999999
 20
211.13671000000031
 30
0.0
 40
1.0
 50
180.0
 51
270.0
  0
LINE
  5
873
  8
DATA
  6
CONTINUOUS
 62
     7
 10
-392.99975000000018
 20
240.9867100000007
 30
0.0
 11
-392.99975000000018
 21
238.5367100000004
 31
0.0
  0
ARC
  5
874
  8
DATA
  6
CONTINUOUS
 62
     7
 10
-392.47636032339028
 20
205.9367100000004
 30
0.0
 40
1.0000000000000291
 50
12.005172830758299
 51
90.0
  0
ARC
  5
875
  8
DATA
  6
CONTINUOUS
 62
     7
 10
-392.47636032338931
 20
211.13671000000031
 30
0.0
 40
1.0
 50
270.0
 51
347.99482716924172
  0
LINE
  5
876
  8
DATA
  6
CONTINUOUS
 62
     7
 10
-381.84975000000009
 20
225.03476569556611
 30
0.0
 11
-381.84975000000009
 21
220.7633203233911
 31
0.0
  0
LINE
  5
877
  8
DATA
  6
CONTINUOUS
 62
     7
 10
-378.64975000000032
 20
225.03476569556489
 30
0.0
 11
-378.64974999999993
 21
220.7633203233878
 31
0.0
  0
ARC
  5
878
  8
DATA
  6
CONTINUOUS
 62
     7
 10
-382.84975000000031
 20
225.03476569556611
 30
0.0
 40
1.0
 50
0.0
 51
79.100264545912239
  0
LINE
  5
879
  8
DATA
  6
CONTINUOUS
 62
     7
 10
-385.84975000000009
 20
208.5367100000004
 30
0.0
 11
-383.0497500000003
 21
203.68696773880751
 31
0.0
  0
LINE
  5
87A
  8
DATA
  6
CONTINUOUS
 62
     7
 10
-383.0497500000003
 20
213.3864522611932
 30
0.0
 11
-385.84975000000009
 21
208.5367100000004
 31
0.0
  0
ARC
  5
87B
  8
DATA
  6
CONTINUOUS
 62
     7
 10
-382.84974999999997
 20
220.7633203233911
 30
0.0
 40
1.0000000000000611
 50
282.00517283075118
 51
0.0
  0
ARC
  5
87C
  8
DATA
  6
CONTINUOUS
 62
     7
 10
-382.84975000000031
 20
196.31009967660981
 30
0.0
 40
1.0
 50
0.0
 51
77.994827169248694
  0
LINE
  5
87D
  8
DATA
  6
CONTINUOUS
 62
     7
 10
-363.79975000000007
 20
240.9867100000007
 30
0.0
 11
-363.79975000000002
 21
211.13671000000031
 31
0.0
  0
ARC
  5
87E
  8
DATA
  6
CONTINUOUS
 62
     7
 10
-380.24975000000012
 20
238.5367100000004
 30
0.0
 40
12.750000000000099
 50
280.89973545408742
 51
0.0
  0
ARC
  5
87F
  8
DATA
  6
CONTINUOUS
 62
     7
 10
-366.49975000000012
 20
240.9867100000007
 30
0.0
 40
1.0
 50
90.0
 51
180.0
  0
LINE
  5
880
  8
DATA
  6
CONTINUOUS
 62
     7
 10
-367.49975000000018
 20
240.9867100000007
 30
0.0
 11
-367.49975000000018
 21
238.5367100000004
 31
0.0
  0
LINE
  5
881
  8
DATA
  6
CONTINUOUS
 62
     7
 10
-366.49975000000012
 20
241.98671000000039
 30
0.0
 11
-364.79975000000002
 21
241.98671000000039
 31
0.0
  0
ARC
  5
882
  8
DATA
  6
CONTINUOUS
 62
     7
 10
-364.79975000000002
 20
240.9867100000007
 30
0.0
 40
1.0
 50
0.0
 51
90.0
  0
ARC
  5
883
  8
DATA
  6
CONTINUOUS
 62
     7
 10
-380.24975000000012
 20
208.5367100000004
 30
0.0
 40
11.50000000000002
 50
12.00517283075169
 51
77.994827169244857
  0
ARC
  5
884
  8
DATA
  6
CONTINUOUS
 62
     7
 10
-380.24975000000012
 20
208.5367100000004
 30
0.0
 40
11.499999999999931
 50
282.00517283075231
 51
347.994827169247
  0
LINE
  5
885
  8
DATA
  6
CONTINUOUS
 62
     7
 10
-374.64975000000032
 20
208.5367100000004
 30
0.0
 11
-377.44975000000011
 21
213.3864522611932
 31
0.0
  0
LINE
  5
886
  8
DATA
  6
CONTINUOUS
 62
     7
 10
-377.44975000000011
 20
203.68696773880751
 30
0.0
 11
-374.64975000000032
 21
208.5367100000004
 31
0.0
  0
ARC
  5
887
  8
DATA
  6
CONTINUOUS
 62
     7
 10
-364.79975000000002
 20
211.13671000000031
 30
0.0
 40
1.0
 50
270.0
 51
0.0
  0
LINE
  5
888
  8
DATA
  6
CONTINUOUS
 62
     7
 10
-368.02313967660882
 20
210.13671000000051
 30
0.0
 11
-364.79975000000002
 21
210.13671000000051
 31
0.0
  0
ARC
  5
889
  8
DATA
  6
CONTINUOUS
 62
     7
 10
-368.02313967660882
 20
211.13671000000031
 30
0.0
 40
0.9999999999999264
 50
192.0051728307462
 51
270.0
  0
ARC
  5
88A
  8
DATA
  6
CONTINUOUS
 62
     7
 10
-368.0231396766103
 20
205.9367100000004
 30
0.0
 40
1.0
 50
90.0
 51
167.99482716924101
  0
LINE
  5
88B
  8
DATA
  6
CONTINUOUS
 62
     7
 10
-368.02313967661001
 20
206.9367100000004
 30
0.0
 11
-364.79975000000002
 21
206.9367100000004
 31
0.0
  0
ARC
  5
88C
  8
DATA
  6
CONTINUOUS
 62
     7
 10
-364.79975000000002
 20
205.9367100000002
 30
0.0
 40
1.0
 50
0.0
 51
90.0
  0
TEXT
  5
88D
  8
DATA
 62
     7
 10
599.99649999999951
 20
-1007.38063375
 30
0.0
 40
25.781185546875001
  1
CONTROL 23T / 23T-WH
 41
0.8
 11
599.99649999999951
 21
-981.59944820312501
 31
0.0
 73
     3
  0
LINE
  5
88E
  8
DATA
  6
CONTINUOUS
 62
     7
 10
575.00025000000005
 20
-278.21328999999992
 30
0.0
 11
925.00025000000005
 21
-278.21328999999992
 31
0.0
  0
TEXT
  5
88F
  8
DATA
 62
     7
 10
595.27488807136251
 20
-265.71328999999992
 30
0.0
 40
24.921875
  1
コネクターパネル拡大図
 41
0.8
 11
595.27488807136251
 21
-240.79141499999989
 31
0.0
 73
     3
  0
LINE
  5
890
  8
DATA
  6
CONTINUOUS
 62
     7
 10
200.0
 20
-698.73000000000002
 30
0.0
 11
200.0
 21
-510.51600000000002
 31
0.0
  0
LINE
  5
891
  8
DATA
  6
CONTINUOUS
 62
     7
 10
233.2913067969009
 20
-690.19835445355955
 30
0.0
 11
233.2913067969009
 21
-519.04764554644032
 31
0.0
  0
LINE
  5
892
  8
DATA
  6
CONTINUOUS
 62
     7
 10
241.85000000000011
 20
-574.69835445355955
 30
0.0
 11
241.85000000000011
 21
-526.19835445356
 31
0.0
  0
LINE
  5
893
  8
DATA
  6
CONTINUOUS
 62
     7
 10
240.84999999999999
 20
-574.69835445355932
 30
0.0
 11
240.84999999999999
 21
-526.19835445355966
 31
0.0
  0
CIRCLE
  5
894
  8
DATA
  6
CONTINUOUS
 62
     7
 10
247.85000000000039
 20
-528.44835445355966
 30
0.0
 40
2.75
  0
LINE
  5
895
  8
DATA
  6
CONTINUOUS
 62
     7
 10
247.85000000000039
 20
-530.44835445355977
 30
0.0
 11
247.85000000000039
 21
-526.44835445355977
 31
0.0
  0
LINE
  5
896
  8
DATA
  6
CONTINUOUS
 62
     7
 10
339.69999999999987
 20
-698.73000000000002
 30
0.0
 11
339.69999999999987
 21
-510.51600000000002
 31
0.0
  0
LINE
  5
897
  8
DATA
  6
CONTINUOUS
 62
     7
 10
306.40869320309912
 20
-690.19835445355955
 30
0.0
 11
306.40869320309957
 21
-519.04764554644032
 31
0.0
  0
LINE
  5
898
  8
DATA
  6
CONTINUOUS
 62
     7
 10
297.8499999999998
 20
-574.69835445355932
 30
0.0
 11
297.8499999999998
 21
-526.19835445355966
 31
0.0
  0
LINE
  5
899
  8
DATA
  6
CONTINUOUS
 62
     7
 10
298.85000000000008
 20
-574.69835445355955
 30
0.0
 11
298.84999999999991
 21
-526.19835445355966
 31
0.0
  0
CIRCLE
  5
89A
  8
DATA
  6
CONTINUOUS
 62
     7
 10
291.85000000000008
 20
-528.44835445355966
 30
0.0
 40
2.75
  0
LINE
  5
89B
  8
DATA
  6
CONTINUOUS
 62
     7
 10
291.85000000000008
 20
-530.44835445355977
 30
0.0
 11
291.85000000000008
 21
-526.44835445355977
 31
0.0
  0
LINE
  5
89C
  8
DATA
  6
CONTINUOUS
 62
     7
 10
201.2700000000001
 20
-700.0
 30
0.0
 11
338.4300000000004
 21
-700.0
 31
0.0
  0
LINE
  5
89D
  8
DATA
  6
CONTINUOUS
 62
     7
 10
233.2913067969009
 20
-690.19835445355955
 30
0.0
 11
306.40869320309957
 21
-690.19835445355955
 31
0.0
  0
LINE
  5
89E
  8
DATA
  6
CONTINUOUS
 62
     7
 10
200.3719743878932
 20
-699.62802561210685
 30
0.0
 11
233.2913067969009
 21
-690.19835445355955
 31
0.0
  0
ARC
  5
89F
  8
DATA
  6
CONTINUOUS
 62
     7
 10
201.2700000000001
 20
-698.73000000000002
 30
0.0
 40
1.2699999999999809
 50
180.0
 51
270.0
  0
LINE
  5
8A0
  8
DATA
  6
CONTINUOUS
 62
     7
 10
245.60000000000011
 20
-584.19835445355932
 30
0.0
 11
294.10000000000008
 21
-584.19835445355955
 31
0.0
  0
LINE
  5
8A1
  8
DATA
  6
CONTINUOUS
 62
     7
 10
245.60000000000011
 20
-663.69835445355955
 30
0.0
 11
294.10000000000008
 21
-663.69835445355955
 31
0.0
  0
LINE
  5
8A2
  8
DATA
  6
CONTINUOUS
 62
     7
 10
245.85000000000011
 20
-578.69835445355955
 30
0.0
 11
293.84999999999991
 21
-578.69835445355955
 31
0.0
  0
LINE
  5
8A3
  8
DATA
  6
CONTINUOUS
 62
     7
 10
245.85000000000011
 20
-579.69835445355932
 30
0.0
 11
293.84999999999991
 21
-579.69835445355932
 31
0.0
  0
LINE
  5
8A4
  8
DATA
  6
CONTINUOUS
 62
     7
 10
288.60000000000008
 20
-566.44835445355955
 30
0.0
 11
251.10000000000011
 21
-566.44835445355955
 31
0.0
  0
LINE
  5
8A5
  8
DATA
  6
CONTINUOUS
 62
     7
 10
251.10000000000011
 20
-560.44835445355955
 30
0.0
 11
288.60000000000008
 21
-560.44835445355955
 31
0.0
  0
LINE
  5
8A6
  8
DATA
  6
CONTINUOUS
 62
     7
 10
254.85000000000039
 20
-645.19835445355955
 30
0.0
 11
284.85000000000048
 21
-645.19835445355955
 31
0.0
  0
LINE
  5
8A7
  8
DATA
  6
CONTINUOUS
 62
     7
 10
254.85000000000039
 20
-651.69835445355955
 30
0.0
 11
284.85000000000048
 21
-651.69835445355955
 31
0.0
  0
LINE
  5
8A8
  8
DATA
  6
CONTINUOUS
 62
     7
 10
273.59999999999991
 20
-556.94835445355966
 30
0.0
 11
285.10000000000031
 21
-556.94835445355932
 31
0.0
  0
LINE
  5
8A9
  8
DATA
  6
CONTINUOUS
 62
     7
 10
273.59999999999991
 20
-555.44835445355955
 30
0.0
 11
285.10000000000031
 21
-555.4483544535592
 31
0.0
  0
LINE
  5
8AA
  8
DATA
  6
CONTINUOUS
 62
     7
 10
273.59999999999991
 20
-553.44835445355955
 30
0.0
 11
285.10000000000031
 21
-553.44835445355955
 31
0.0
  0
TEXT
  5
8AB
  8
DATA
 62
     7
 10
262.811027414943
 20
-685.3983544535597
 30
0.0
 40
1.71875
  1
PROFESSIONAL
 41
0.8
 11
262.811027414943
 21
-683.6796044535597
 31
0.0
 73
     3
  0
TEXT
  5
8AC
  8
DATA
 62
     7
 10
262.30000000000013
 20
-668.49835445355961
 30
0.0
 40
1.71875
  1
CONTROL
 41
0.8
 11
262.30000000000013
 21
-666.77960445355961
 31
0.0
 73
     3
  0
TEXT
  5
8AD
  8
DATA
 62
     7
 10
275.24332230946533
 20
-668.4983544535595
 30
0.0
 40
1.71875
  1
23
 41
0.8
 11
275.24332230946533
 21
-666.77960445355939
 31
0.0
 73
     3
  0
LINE
  5
8AE
  8
DATA
  6
CONTINUOUS
 62
     7
 10
251.10000000000011
 20
-534.44835445355977
 30
0.0
 11
288.60000000000008
 21
-534.44835445355977
 31
0.0
  0
LINE
  5
8AF
  8
DATA
  6
CONTINUOUS
 62
     7
 10
251.10000000000011
 20
-542.44835445355966
 30
0.0
 11
288.60000000000008
 21
-542.44835445355966
 31
0.0
  0
LINE
  5
8B0
  8
DATA
  6
CONTINUOUS
 62
     7
 10
271.60000000000042
 20
-534.94835445355977
 30
0.0
 11
287.10000000000008
 21
-534.94835445355977
 31
0.0
  0
LINE
  5
8B1
  8
DATA
  6
CONTINUOUS
 62
     7
 10
287.10000000000008
 20
-541.94835445355966
 30
0.0
 11
271.60000000000042
 21
-541.94835445355966
 31
0.0
  0
LINE
  5
8B2
  8
DATA
  6
CONTINUOUS
 62
     7
 10
251.10000000000011
 20
-566.44835445355955
 30
0.0
 11
251.10000000000011
 21
-534.44835445355977
 31
0.0
  0
LINE
  5
8B3
  8
DATA
  6
CONTINUOUS
 62
     7
 10
266.10000000000042
 20
-560.44835445355955
 30
0.0
 11
266.10000000000042
 21
-542.44835445355966
 31
0.0
  0
LINE
  5
8B4
  8
DATA
  6
CONTINUOUS
 62
     7
 10
273.59999999999991
 20
-542.44835445355966
 30
0.0
 11
273.60000000000048
 21
-560.44835445355955
 31
0.0
  0
LINE
  5
8B5
  8
DATA
  6
CONTINUOUS
 62
     7
 10
254.60000000000039
 20
-542.44835445355966
 30
0.0
 11
254.60000000000039
 21
-560.44835445355955
 31
0.0
  0
LINE
  5
8B6
  8
DATA
  6
CONTINUOUS
 62
     7
 10
261.60000000000008
 20
-686.19835445355955
 30
0.0
 11
278.10000000000042
 21
-686.19835445355955
 31
0.0
  0
LINE
  5
8B7
  8
DATA
  6
CONTINUOUS
 62
     7
 10
261.60000000000008
 20
-683.19835445355955
 30
0.0
 11
278.10000000000042
 21
-683.19835445355932
 31
0.0
  0
LINE
  5
8B8
  8
DATA
  6
CONTINUOUS
 62
     7
 10
261.60000000000008
 20
-669.19835445355955
 30
0.0
 11
278.10000000000042
 21
-669.19835445355955
 31
0.0
  0
LINE
  5
8B9
  8
DATA
  6
CONTINUOUS
 62
     7
 10
261.60000000000008
 20
-666.19835445355932
 30
0.0
 11
278.10000000000042
 21
-666.19835445355932
 31
0.0
  0
LINE
  5
8BA
  8
DATA
  6
CONTINUOUS
 62
     7
 10
261.60000000000008
 20
-686.19835445355955
 30
0.0
 11
261.60000000000008
 21
-666.19835445355932
 31
0.0
  0
LINE
  5
8BB
  8
DATA
  6
CONTINUOUS
 62
     7
 10
278.10000000000042
 20
-686.19835445355955
 30
0.0
 11
278.10000000000042
 21
-666.19835445355932
 31
0.0
  0
CIRCLE
  5
8BC
  8
DATA
  6
CONTINUOUS
 62
     7
 10
269.85000000000042
 20
-619.69835445355955
 30
0.0
 40
13.0
  0
CIRCLE
  5
8BD
  8
DATA
  6
CONTINUOUS
 62
     7
 10
269.85000000000042
 20
-619.69835445355955
 30
0.0
 40
11.25
  0
LINE
  5
8BE
  8
DATA
  6
CONTINUOUS
 62
     7
 10
254.85000000000039
 20
-651.69835445355955
 30
0.0
 11
254.85000000000039
 21
-645.19835445355955
 31
0.0
  0
ARC
  5
8BF
  8
DATA
  6
CONTINUOUS
 62
     7
 10
269.85000000000042
 20
-648.44835445355966
 30
0.0
 40
9.7499999999999591
 50
199.47122063449081
 51
340.52877936550982
  0
ARC
  5
8C0
  8
DATA
  6
CONTINUOUS
 62
     7
 10
269.85000000000042
 20
-648.44835445355966
 30
0.0
 40
9.7499999999999591
 50
19.471220634490759
 51
160.52877936550919
  0
CIRCLE
  5
8C1
  8
DATA
  6
CONTINUOUS
 62
     7
 10
246.60000000000011
 20
-619.69835445355955
 30
0.0
 40
3.0
  0
ARC
  5
8C2
  8
DATA
  6
CONTINUOUS
 62
     7
 10
245.60000000000011
 20
-589.19835445355955
 30
0.0
 40
5.0
 50
90.0
 51
180.0
  0
LINE
  5
8C3
  8
DATA
  6
CONTINUOUS
 62
     7
 10
240.60000000000039
 20
-658.69835445355966
 30
0.0
 11
240.60000000000039
 21
-589.19835445355955
 31
0.0
  0
ARC
  5
8C4
  8
DATA
  6
CONTINUOUS
 62
     7
 10
245.60000000000011
 20
-658.69835445355966
 30
0.0
 40
5.0
 50
180.0
 51
270.0
  0
ARC
  5
8C5
  8
DATA
  6
CONTINUOUS
 62
     7
 10
245.85000000000011
 20
-574.69835445355955
 30
0.0
 40
4.0
 50
180.0
 51
270.0
  0
ARC
  5
8C6
  8
DATA
  6
CONTINUOUS
 62
     7
 10
245.85000000000011
 20
-574.69835445355932
 30
0.0
 40
5.0
 50
180.0
 51
270.0
  0
CIRCLE
  5
8C7
  8
DATA
  6
CONTINUOUS
 62
     7
 10
247.85000000000039
 20
-572.44835445355955
 30
0.0
 40
2.75
  0
LINE
  5
8C8
  8
DATA
  6
CONTINUOUS
 62
     7
 10
245.85000000000011
 20
-572.44835445355955
 30
0.0
 11
249.85000000000011
 21
-572.44835445355955
 31
0.0
  0
LINE
  5
8C9
  8
DATA
  6
CONTINUOUS
 62
     7
 10
247.85000000000039
 20
-574.44835445355955
 30
0.0
 11
247.85000000000039
 21
-570.44835445355955
 31
0.0
  0
LINE
  5
8CA
  8
DATA
  6
CONTINUOUS
 62
     7
 10
254.60000000000039
 20
-556.94835445355966
 30
0.0
 11
266.10000000000042
 21
-556.94835445355932
 31
0.0
  0
LINE
  5
8CB
  8
DATA
  6
CONTINUOUS
 62
     7
 10
254.60000000000039
 20
-555.44835445355955
 30
0.0
 11
266.10000000000042
 21
-555.4483544535592
 31
0.0
  0
LINE
  5
8CC
  8
DATA
  6
CONTINUOUS
 62
     7
 10
254.60000000000039
 20
-553.44835445355955
 30
0.0
 11
266.10000000000042
 21
-553.44835445355955
 31
0.0
  0
TEXT
  5
8CD
  8
DATA
 62
     7
 10
261.98613202072943
 20
-565.44835445355966
 30
0.0
 40
5.15625
  1
INPUT
 41
0.8
 11
261.98613202072943
 21
-560.29210445355966
 31
0.0
 73
     3
  0
CIRCLE
  5
8CE
  8
DATA
  6
CONTINUOUS
 62
     7
 10
260.35000000000042
 20
-572.44835445355955
 30
0.0
 40
2.5
  0
LINE
  5
8CF
  8
DATA
  6
CONTINUOUS
 62
     7
 10
258.60000000000042
 20
-572.44835445355955
 30
0.0
 11
262.10000000000042
 21
-572.44835445355955
 31
0.0
  0
CIRCLE
  5
8D0
  8
DATA
  6
CONTINUOUS
 62
     7
 10
279.3499999999998
 20
-572.44835445355955
 30
0.0
 40
2.5
  0
LINE
  5
8D1
  8
DATA
  6
CONTINUOUS
 62
     7
 10
277.59999999999991
 20
-572.44835445355955
 30
0.0
 11
281.10000000000042
 21
-572.44835445355955
 31
0.0
  0
LINE
  5
8D2
  8
DATA
  6
CONTINUOUS
 62
     7
 10
279.3499999999998
 20
-574.1983544535592
 30
0.0
 11
279.3499999999998
 21
-570.69835445355932
 31
0.0
  0
LINE
  5
8D3
  8
DATA
  6
CONTINUOUS
 62
     7
 10
262.35000000000008
 20
-620.69835445355955
 30
0.0
 11
262.35000000000008
 21
-618.69835445355955
 31
0.0
  0
LINE
  5
8D4
  8
DATA
  6
CONTINUOUS
 62
     7
 10
262.35000000000008
 20
-618.69835445355955
 30
0.0
 11
277.35000000000008
 21
-618.69835445355955
 31
0.0
  0
LINE
  5
8D5
  8
DATA
  6
CONTINUOUS
 62
     7
 10
277.35000000000008
 20
-618.69835445355955
 30
0.0
 11
277.35000000000008
 21
-620.69835445355955
 31
0.0
  0
LINE
  5
8D6
  8
DATA
  6
CONTINUOUS
 62
     7
 10
277.35000000000008
 20
-620.69835445355955
 30
0.0
 11
262.35000000000008
 21
-620.69835445355955
 31
0.0
  0
LINE
  5
8D7
  8
DATA
  6
CONTINUOUS
 62
     7
 10
245.85000000000011
 20
-528.44835445355966
 30
0.0
 11
249.85000000000011
 21
-528.44835445355966
 31
0.0
  0
LINE
  5
8D8
  8
DATA
  6
CONTINUOUS
 62
     7
 10
258.35000000000008
 20
-540.44835445355966
 30
0.0
 11
258.35000000000008
 21
-536.44835445355966
 31
0.0
  0
LINE
  5
8D9
  8
DATA
  6
CONTINUOUS
 62
     7
 10
258.35000000000008
 20
-536.44835445355966
 30
0.0
 11
262.35000000000008
 21
-536.44835445355966
 31
0.0
  0
LINE
  5
8DA
  8
DATA
  6
CONTINUOUS
 62
     7
 10
262.35000000000008
 20
-536.44835445355966
 30
0.0
 11
262.35000000000008
 21
-540.44835445355966
 31
0.0
  0
LINE
  5
8DB
  8
DATA
  6
CONTINUOUS
 62
     7
 10
262.35000000000008
 20
-540.44835445355966
 30
0.0
 11
258.35000000000008
 21
-540.44835445355966
 31
0.0
  0
LINE
  5
8DC
  8
DATA
  6
CONTINUOUS
 62
     7
 10
252.60000000000011
 20
-541.94835445355966
 30
0.0
 11
252.60000000000011
 21
-534.94835445355977
 31
0.0
  0
LINE
  5
8DD
  8
DATA
  6
CONTINUOUS
 62
     7
 10
252.60000000000011
 20
-534.94835445355977
 30
0.0
 11
268.09999999999991
 21
-534.94835445355977
 31
0.0
  0
LINE
  5
8DE
  8
DATA
  6
CONTINUOUS
 62
     7
 10
268.09999999999991
 20
-534.94835445355977
 30
0.0
 11
268.09999999999991
 21
-541.94835445355966
 31
0.0
  0
LINE
  5
8DF
  8
DATA
  6
CONTINUOUS
 62
     7
 10
268.09999999999991
 20
-541.94835445355966
 30
0.0
 11
252.60000000000011
 21
-541.94835445355966
 31
0.0
  0
LINE
  5
8E0
  8
DATA
  6
CONTINUOUS
 62
     7
 10
277.35000000000008
 20
-540.44835445355966
 30
0.0
 11
277.35000000000008
 21
-536.44835445355966
 31
0.0
  0
LINE
  5
8E1
  8
DATA
  6
CONTINUOUS
 62
     7
 10
277.35000000000008
 20
-536.44835445355966
 30
0.0
 11
281.35000000000008
 21
-536.44835445355966
 31
0.0
  0
LINE
  5
8E2
  8
DATA
  6
CONTINUOUS
 62
     7
 10
281.35000000000008
 20
-536.44835445355966
 30
0.0
 11
281.35000000000008
 21
-540.44835445355966
 31
0.0
  0
LINE
  5
8E3
  8
DATA
  6
CONTINUOUS
 62
     7
 10
281.35000000000008
 20
-540.44835445355966
 30
0.0
 11
277.35000000000008
 21
-540.44835445355966
 31
0.0
  0
LINE
  5
8E4
  8
DATA
  6
CONTINUOUS
 62
     7
 10
271.60000000000042
 20
-541.94835445355966
 30
0.0
 11
271.60000000000042
 21
-534.94835445355977
 31
0.0
  0
LINE
  5
8E5
  8
DATA
  6
CONTINUOUS
 62
     7
 10
339.32802561210713
 20
-699.62802561210685
 30
0.0
 11
306.40869320309957
 21
-690.19835445355955
 31
0.0
  0
ARC
  5
8E6
  8
DATA
  6
CONTINUOUS
 62
     7
 10
338.4300000000004
 20
-698.73000000000002
 30
0.0
 40
1.2699999999999809
 50
270.0
 51
0.0
  0
LINE
  5
8E7
  8
DATA
  6
CONTINUOUS
 62
     7
 10
285.09999999999991
 20
-560.44835445355955
 30
0.0
 11
285.09999999999991
 21
-542.44835445355966
 31
0.0
  0
LINE
  5
8E8
  8
DATA
  6
CONTINUOUS
 62
     7
 10
288.60000000000008
 20
-534.44835445355977
 30
0.0
 11
288.60000000000008
 21
-566.44835445355955
 31
0.0
  0
LINE
  5
8E9
  8
DATA
  6
CONTINUOUS
 62
     7
 10
284.84999999999991
 20
-651.69835445355955
 30
0.0
 11
284.85000000000048
 21
-645.19835445355955
 31
0.0
  0
CIRCLE
  5
8EA
  8
DATA
  6
CONTINUOUS
 62
     7
 10
293.10000000000031
 20
-619.69835445355955
 30
0.0
 40
3.0
  0
ARC
  5
8EB
  8
DATA
  6
CONTINUOUS
 62
     7
 10
294.10000000000008
 20
-589.19835445355955
 30
0.0
 40
5.0
 50
0.0
 51
90.0
  0
LINE
  5
8EC
  8
DATA
  6
CONTINUOUS
 62
     7
 10
299.10000000000008
 20
-658.69835445355932
 30
0.0
 11
299.10000000000008
 21
-589.19835445355955
 31
0.0
  0
ARC
  5
8ED
  8
DATA
  6
CONTINUOUS
 62
     7
 10
294.10000000000008
 20
-658.69835445355932
 30
0.0
 40
5.0
 50
270.0
 51
0.0
  0
ARC
  5
8EE
  8
DATA
  6
CONTINUOUS
 62
     7
 10
293.84999999999991
 20
-574.69835445355932
 30
0.0
 40
4.0
 50
270.0
 51
0.0
  0
ARC
  5
8EF
  8
DATA
  6
CONTINUOUS
 62
     7
 10
293.84999999999991
 20
-574.69835445355955
 30
0.0
 40
5.0
 50
270.0
 51
0.0
  0
CIRCLE
  5
8F0
  8
DATA
  6
CONTINUOUS
 62
     7
 10
291.85000000000008
 20
-572.44835445355955
 30
0.0
 40
2.75
  0
LINE
  5
8F1
  8
DATA
  6
CONTINUOUS
 62
     7
 10
289.85000000000031
 20
-572.44835445355955
 30
0.0
 11
293.85000000000031
 21
-572.44835445355955
 31
0.0
  0
LINE
  5
8F2
  8
DATA
  6
CONTINUOUS
 62
     7
 10
291.85000000000008
 20
-574.44835445355955
 30
0.0
 11
291.85000000000008
 21
-570.44835445355955
 31
0.0
  0
LINE
  5
8F3
  8
DATA
  6
CONTINUOUS
 62
     7
 10
287.10000000000008
 20
-534.94835445355977
 30
0.0
 11
287.10000000000008
 21
-541.94835445355966
 31
0.0
  0
LINE
  5
8F4
  8
DATA
  6
CONTINUOUS
 62
     7
 10
289.85000000000031
 20
-528.44835445355966
 30
0.0
 11
293.85000000000031
 21
-528.44835445355966
 31
0.0
  0
LINE
  5
8F5
  8
DATA
  6
CONTINUOUS
 62
     7
 10
201.2700000000001
 20
-509.24600000000009
 30
0.0
 11
338.4300000000004
 21
-509.24600000000009
 31
0.0
  0
LINE
  5
8F6
  8
DATA
  6
CONTINUOUS
 62
     7
 10
233.2913067969009
 20
-519.04764554644032
 30
0.0
 11
306.40869320309957
 21
-519.04764554644032
 31
0.0
  0
ARC
  5
8F7
  8
DATA
  6
CONTINUOUS
 62
     7
 10
201.2700000000001
 20
-510.51600000000002
 30
0.0
 40
1.2699999999999809
 50
90.0
 51
180.0
  0
LINE
  5
8F8
  8
DATA
  6
CONTINUOUS
 62
     7
 10
200.3719743878932
 20
-509.6179743878929
 30
0.0
 11
233.2913067969009
 21
-519.04764554644032
 31
0.0
  0
LINE
  5
8F9
  8
DATA
  6
CONTINUOUS
 62
     7
 10
245.85000000000011
 20
-522.19835445356
 30
0.0
 11
293.84999999999991
 21
-522.19835445355966
 31
0.0
  0
LINE
  5
8FA
  8
DATA
  6
CONTINUOUS
 62
     7
 10
245.85000000000011
 20
-521.19835445355966
 30
0.0
 11
293.84999999999991
 21
-521.19835445355966
 31
0.0
  0
ARC
  5
8FB
  8
DATA
  6
CONTINUOUS
 62
     7
 10
245.85000000000011
 20
-526.19835445356
 30
0.0
 40
4.0
 50
90.0
 51
180.0
  0
ARC
  5
8FC
  8
DATA
  6
CONTINUOUS
 62
     7
 10
245.85000000000011
 20
-526.19835445355966
 30
0.0
 40
5.0
 50
90.0
 51
180.0
  0
LINE
  5
8FD
  8
DATA
  6
CONTINUOUS
 62
     7
 10
339.32802561210713
 20
-509.6179743878929
 30
0.0
 11
306.40869320309957
 21
-519.04764554644032
 31
0.0
  0
ARC
  5
8FE
  8
DATA
  6
CONTINUOUS
 62
     7
 10
293.84999999999991
 20
-526.19835445355966
 30
0.0
 40
4.0
 50
0.0
 51
90.0
  0
ARC
  5
8FF
  8
DATA
  6
CONTINUOUS
 62
     7
 10
293.84999999999991
 20
-526.19835445355966
 30
0.0
 40
5.0
 50
0.0
 51
90.0
  0
ARC
  5
900
  8
DATA
  6
CONTINUOUS
 62
     7
 10
338.4300000000004
 20
-510.51600000000002
 30
0.0
 40
1.2699999999999809
 50
0.0
 51
90.0
  0
ARC
  5
901
  8
DATA
  6
CONTINUOUS
 62
     7
 10
870.00025000000051
 20
-590.71328999999855
 30
0.0
 40
20.0
 50
270.0
 51
0.0
  0
ARC
  5
902
  8
DATA
  6
CONTINUOUS
 62
     7
 10
630.00025000000051
 20
-590.71328999999957
 30
0.0
 40
20.0
 50
180.0
 51
270.0
  0
TEXT
  5
903
  8
DATA
 62
     7
 10
624.99643750000041
 20
-946.96411812500003
 30
0.0
 40
25.781185546875001
  1
JBL
 41
0.8
 11
624.99643750000041
 21
-921.18293257812502
 31
0.0
 73
     3
  0
LINE
  5
904
  8
DATA
  6
CONTINUOUS
 62
     7
 10
702.50025019000032
 20
-619.8799554999996
 30
0.0
 11
702.50025019000032
 21
-661.54662199999962
 31
0.0
  0
LINE
  5
905
  8
DATA
  6
CONTINUOUS
 62
     7
 10
797.50024981000104
 20
-619.8799554999996
 30
0.0
 11
797.50024981000104
 21
-661.54662199999962
 31
0.0
  0
TEXT
  5
906
  8
DATA
 62
     7
 10
676.49319566718214
 20
-703.21328849999963
 30
0.0
 40
26.855468642578121
  1
BLK
 41
0.8
 11
676.49319566718214
 21
-676.35781985742153
 31
0.0
 73
     3
  0
TEXT
  5
907
  8
DATA
 62
     7
 10
769.63554853555286
 20
-703.21328849999963
 30
0.0
 40
26.855468642578121
  1
RED
 41
0.8
 11
769.63554853555286
 21
-676.35781985742153
 31
0.0
 73
     3
  0
LINE
  5
908
  8
DATA
  6
CONTINUOUS
 62
     7
 10
698.33375020666688
 20
-644.87995539999963
 30
0.0
 11
702.50025019000032
 21
-619.8799554999996
 31
0.0
  0
LINE
  5
909
  8
DATA
  6
CONTINUOUS
 62
     7
 10
706.66675017333455
 20
-644.87995539999963
 30
0.0
 11
702.50025019000032
 21
-619.8799554999996
 31
0.0
  0
LINE
  5
90A
  8
DATA
  6
CONTINUOUS
 62
     7
 10
793.33374982666737
 20
-644.87995539999963
 30
0.0
 11
797.50024981000104
 21
-619.8799554999996
 31
0.0
  0
LINE
  5
90B
  8
DATA
  6
CONTINUOUS
 62
     7
 10
801.66674979333527
 20
-644.87995539999963
 30
0.0
 11
797.50024981000104
 21
-619.8799554999996
 31
0.0
  0
LINE
  5
90C
  8
DATA
  6
CONTINUOUS
 62
     7
 10
630.00025000000051
 20
-610.71328999999901
 30
0.0
 11
870.00025000000051
 21
-610.71328999999901
 31
0.0
  0
CIRCLE
  5
90D
  8
DATA
  6
CONTINUOUS
 62
     7
 10
860.00025000000051
 20
-579.46328999999901
 30
0.0
 40
13.75
  0
ARC
  5
90E
  8
DATA
  6
CONTINUOUS
 62
     7
 10
870.00025000000051
 20
-348.21328999999957
 30
0.0
 40
20.0
 50
0.0
 51
90.0
  0
CIRCLE
  5
90F
  8
DATA
  6
CONTINUOUS
 62
     7
 10
860.00025000000051
 20
-359.4632900000002
 30
0.0
 40
13.75
  0
LINE
  5
910
  8
DATA
  6
CONTINUOUS
 62
     7
 10
610.00025000000016
 20
-590.71328999999957
 30
0.0
 11
610.00025000000016
 21
-348.2132900000006
 31
0.0
  0
CIRCLE
  5
911
  8
DATA
  6
CONTINUOUS
 62
     7
 10
640.00025000000096
 20
-579.46328999999901
 30
0.0
 40
13.75
  0
LINE
  5
912
  8
DATA
  6
CONTINUOUS
 62
     7
 10
630.00025000000051
 20
-579.46328999999901
 30
0.0
 11
650.00025000000005
 21
-579.46328999999901
 31
0.0
  0
LINE
  5
913
  8
DATA
  6
CONTINUOUS
 62
     7
 10
640.00025000000096
 20
-589.46328999999866
 30
0.0
 11
640.00025000000096
 21
-569.46328999999935
 31
0.0
  0
CIRCLE
  5
914
  8
DATA
  6
CONTINUOUS
 62
     7
 10
702.50025000000016
 20
-579.46328999999901
 30
0.0
 40
12.5
  0
LINE
  5
915
  8
DATA
  6
CONTINUOUS
 62
     7
 10
693.75025000000005
 20
-579.46328999999901
 30
0.0
 11
711.25024999999926
 21
-579.46328999999901
 31
0.0
  0
CIRCLE
  5
916
  8
DATA
  6
CONTINUOUS
 62
     7
 10
797.50025000000107
 20
-579.46328999999901
 30
0.0
 40
12.5
  0
LINE
  5
917
  8
DATA
  6
CONTINUOUS
 62
     7
 10
788.75025000000051
 20
-579.46328999999901
 30
0.0
 11
806.25025000000005
 21
-579.46328999999901
 31
0.0
  0
LINE
  5
918
  8
DATA
  6
CONTINUOUS
 62
     7
 10
797.50025000000107
 20
-588.21328999999821
 30
0.0
 11
797.50025000000107
 21
-570.71328999999889
 31
0.0
  0
LINE
  5
919
  8
DATA
  6
CONTINUOUS
 62
     7
 10
850.00025000000005
 20
-579.46328999999901
 30
0.0
 11
870.00025000000051
 21
-579.46328999999901
 31
0.0
  0
LINE
  5
91A
  8
DATA
  6
CONTINUOUS
 62
     7
 10
860.00025000000051
 20
-589.46328999999866
 30
0.0
 11
860.00025000000051
 21
-569.46328999999935
 31
0.0
  0
LINE
  5
91B
  8
DATA
  6
CONTINUOUS
 62
     7
 10
630.00025000000051
 20
-328.21329000000009
 30
0.0
 11
870.00025000000051
 21
-328.21328999999929
 31
0.0
  0
LINE
  5
91C
  8
DATA
  6
CONTINUOUS
 62
     7
 10
843.75024999999971
 20
-549.46328999999866
 30
0.0
 11
656.25025000000153
 21
-549.46328999999866
 31
0.0
  0
LINE
  5
91D
  8
DATA
  6
CONTINUOUS
 62
     7
 10
656.25025000000153
 20
-519.46328999999855
 30
0.0
 11
843.75024999999971
 21
-519.46328999999855
 31
0.0
  0
LINE
  5
91E
  8
DATA
  6
CONTINUOUS
 62
     7
 10
673.7502499999996
 20
-501.96328999999952
 30
0.0
 11
731.25024999999891
 21
-501.96328999999849
 31
0.0
  0
LINE
  5
91F
  8
DATA
  6
CONTINUOUS
 62
     7
 10
673.7502499999996
 20
-494.46328999999997
 30
0.0
 11
731.25024999999891
 21
-494.46328999999821
 31
0.0
  0
LINE
  5
920
  8
DATA
  6
CONTINUOUS
 62
     7
 10
673.7502499999996
 20
-484.4632899999994
 30
0.0
 11
731.25024999999891
 21
-484.4632899999994
 31
0.0
  0
TEXT
  5
921
  8
DATA
 62
     7
 10
710.68091010364697
 20
-544.4632899999998
 30
0.0
 40
25.78125
  1
INPUT
 41
0.8
 11
710.68091010364697
 21
-518.6820399999998
 31
0.0
 73
     3
  0
LINE
  5
922
  8
DATA
  6
CONTINUOUS
 62
     7
 10
656.25025000000153
 20
-389.46328999999957
 30
0.0
 11
843.75024999999971
 21
-389.46328999999957
 31
0.0
  0
LINE
  5
923
  8
DATA
  6
CONTINUOUS
 62
     7
 10
656.25025000000153
 20
-429.4632900000006
 30
0.0
 11
843.75024999999971
 21
-429.4632900000006
 31
0.0
  0
LINE
  5
924
  8
DATA
  6
CONTINUOUS
 62
     7
 10
663.75024999999926
 20
-391.96328999999992
 30
0.0
 11
741.25025000000005
 21
-391.96328999999992
 31
0.0
  0
LINE
  5
925
  8
DATA
  6
CONTINUOUS
 62
     7
 10
741.25025000000005
 20
-426.96328999999992
 30
0.0
 11
663.75024999999926
 21
-426.96328999999992
 31
0.0
  0
LINE
  5
926
  8
DATA
  6
CONTINUOUS
 62
     7
 10
656.25025000000153
 20
-549.46328999999866
 30
0.0
 11
656.25025000000153
 21
-389.46328999999957
 31
0.0
  0
LINE
  5
927
  8
DATA
  6
CONTINUOUS
 62
     7
 10
673.7502499999996
 20
-429.4632900000006
 30
0.0
 11
673.7502499999996
 21
-519.46328999999855
 31
0.0
  0
CIRCLE
  5
928
  8
DATA
  6
CONTINUOUS
 62
     7
 10
640.00025000000096
 20
-359.4632900000002
 30
0.0
 40
13.75
  0
LINE
  5
929
  8
DATA
  6
CONTINUOUS
 62
     7
 10
630.00025000000051
 20
-359.4632900000002
 30
0.0
 11
650.00025000000005
 21
-359.4632900000002
 31
0.0
  0
ARC
  5
92A
  8
DATA
  6
CONTINUOUS
 62
     7
 10
630.00025000000051
 20
-348.2132900000006
 30
0.0
 40
20.0
 50
90.0
 51
180.0
  0
LINE
  5
92B
  8
DATA
  6
CONTINUOUS
 62
     7
 10
640.00025000000096
 20
-369.46328999999992
 30
0.0
 11
640.00025000000096
 21
-349.46329000000031
 31
0.0
  0
LINE
  5
92C
  8
DATA
  6
CONTINUOUS
 62
     7
 10
692.50024999999846
 20
-419.4632899999998
 30
0.0
 11
692.50024999999846
 21
-399.46329000000009
 31
0.0
  0
LINE
  5
92D
  8
DATA
  6
CONTINUOUS
 62
     7
 10
692.50024999999846
 20
-399.46329000000009
 30
0.0
 11
712.50024999999835
 21
-399.46329000000009
 31
0.0
  0
LINE
  5
92E
  8
DATA
  6
CONTINUOUS
 62
     7
 10
712.50024999999835
 20
-399.46329000000009
 30
0.0
 11
712.50024999999835
 21
-419.4632899999998
 31
0.0
  0
LINE
  5
92F
  8
DATA
  6
CONTINUOUS
 62
     7
 10
712.50024999999835
 20
-419.4632899999998
 30
0.0
 11
692.50024999999846
 21
-419.4632899999998
 31
0.0
  0
LINE
  5
930
  8
DATA
  6
CONTINUOUS
 62
     7
 10
663.75024999999926
 20
-426.96328999999992
 30
0.0
 11
663.75024999999926
 21
-391.96328999999992
 31
0.0
  0
LINE
  5
931
  8
DATA
  6
CONTINUOUS
 62
     7
 10
731.25024999999891
 20
-519.46328999999855
 30
0.0
 11
731.25024999999891
 21
-429.4632900000006
 31
0.0
  0
LINE
  5
932
  8
DATA
  6
CONTINUOUS
 62
     7
 10
768.75025000000005
 20
-429.4632900000006
 30
0.0
 11
768.75025000000005
 21
-519.46328999999855
 31
0.0
  0
LINE
  5
933
  8
DATA
  6
CONTINUOUS
 62
     7
 10
826.25024999999891
 20
-519.46328999999855
 30
0.0
 11
826.25024999999891
 21
-429.4632900000006
 31
0.0
  0
LINE
  5
934
  8
DATA
  6
CONTINUOUS
 62
     7
 10
843.75024999999971
 20
-389.46328999999957
 30
0.0
 11
843.75024999999971
 21
-549.46328999999866
 31
0.0
  0
LINE
  5
935
  8
DATA
  6
CONTINUOUS
 62
     7
 10
768.75025000000005
 20
-501.96328999999952
 30
0.0
 11
826.25024999999891
 21
-501.96328999999849
 31
0.0
  0
LINE
  5
936
  8
DATA
  6
CONTINUOUS
 62
     7
 10
768.75025000000005
 20
-494.46328999999997
 30
0.0
 11
826.25024999999891
 21
-494.46328999999821
 31
0.0
  0
LINE
  5
937
  8
DATA
  6
CONTINUOUS
 62
     7
 10
768.75025000000005
 20
-484.4632899999994
 30
0.0
 11
826.25024999999891
 21
-484.4632899999994
 31
0.0
  0
LINE
  5
938
  8
DATA
  6
CONTINUOUS
 62
     7
 10
758.75024999999971
 20
-391.96328999999992
 30
0.0
 11
836.25024999999891
 21
-391.96328999999992
 31
0.0
  0
LINE
  5
939
  8
DATA
  6
CONTINUOUS
 62
     7
 10
836.25024999999891
 20
-426.96328999999992
 30
0.0
 11
758.75024999999971
 21
-426.96328999999992
 31
0.0
  0
LINE
  5
93A
  8
DATA
  6
CONTINUOUS
 62
     7
 10
741.25025000000005
 20
-391.96328999999992
 30
0.0
 11
741.25025000000005
 21
-426.96328999999992
 31
0.0
  0
LINE
  5
93B
  8
DATA
  6
CONTINUOUS
 62
     7
 10
787.50024999999891
 20
-419.4632899999998
 30
0.0
 11
787.50024999999891
 21
-399.46329000000009
 31
0.0
  0
LINE
  5
93C
  8
DATA
  6
CONTINUOUS
 62
     7
 10
787.50024999999891
 20
-399.46329000000009
 30
0.0
 11
807.50024999999869
 21
-399.46329000000009
 31
0.0
  0
LINE
  5
93D
  8
DATA
  6
CONTINUOUS
 62
     7
 10
807.50024999999869
 20
-399.46329000000009
 30
0.0
 11
807.50024999999869
 21
-419.4632899999998
 31
0.0
  0
LINE
  5
93E
  8
DATA
  6
CONTINUOUS
 62
     7
 10
807.50024999999869
 20
-419.4632899999998
 30
0.0
 11
787.50024999999891
 21
-419.4632899999998
 31
0.0
  0
LINE
  5
93F
  8
DATA
  6
CONTINUOUS
 62
     7
 10
758.75024999999971
 20
-426.96328999999992
 30
0.0
 11
758.75024999999971
 21
-391.96328999999992
 31
0.0
  0
LINE
  5
940
  8
DATA
  6
CONTINUOUS
 62
     7
 10
836.25024999999891
 20
-391.96328999999992
 30
0.0
 11
836.25024999999891
 21
-426.96328999999992
 31
0.0
  0
LINE
  5
941
  8
DATA
  6
CONTINUOUS
 62
     7
 10
850.00025000000005
 20
-359.4632900000002
 30
0.0
 11
870.00025000000051
 21
-359.4632900000002
 31
0.0
  0
LINE
  5
942
  8
DATA
  6
CONTINUOUS
 62
     7
 10
860.00025000000051
 20
-369.46328999999992
 30
0.0
 11
860.00025000000051
 21
-349.46329000000031
 31
0.0
  0
LINE
  5
943
  8
DATA
  6
CONTINUOUS
 62
     7
 10
890.00025000000005
 20
-590.71328999999855
 30
0.0
 11
890.00025000000005
 21
-348.21328999999957
 31
0.0
  0
TEXT
  5
944
  8
DATA
 62
     7
 10
-640.5
 20
15.475000000000099
 30
0.0
 40
25.399999999999999
  1
Invisiball取付金具(壁用)
 41
0.8
 11
-640.5
 21
40.875000000000107
 31
0.0
 73
     3
  0
TEXT
  5
945
  8
DATA
 62
     7
 10
-700.0
 20
-1084.563664999999
 30
0.0
 40
16.93333333333333
  1
仕様および外観は予告なく変更されることがありますので、ご了承ください。
 41
0.8
 11
-700.0
 21
-1067.6303316666661
 31
0.0
 73
     3
  0
ARC
  5
946
  8
DATA
  6
CONTINUOUS
 62
     7
 10
-529.14832099825924
 20
-600.39722411208982
 30
0.0
 40
0.2869048033365632
 50
307.64190249757502
 51
354.26701928940082
  0
LINE
  5
947
  8
DATA
  6
CONTINUOUS
 62
     7
 10
-536.51781922547514
 20
-595.87606875277515
 30
0.0
 11
-535.17280522547514
 21
-592.67127675277516
 31
0.0
  0
LINE
  5
948
  8
DATA
  6
CONTINUOUS
 62
     7
 10
-536.51781922547514
 20
-595.87606875277515
 30
0.0
 11
-537.84623722547519
 21
-592.67127675277516
 31
0.0
  0
LINE
  5
949
  8
DATA
  6
CONTINUOUS
 62
     7
 10
-526.32225922547514
 20
-601.67127675277516
 30
0.0
 11
-526.32225922547514
 21
-592.67127675277516
 31
0.0
  0
LINE
  5
94A
  8
DATA
  6
CONTINUOUS
 62
     7
 10
-524.59532122547512
 20
-592.67127675277516
 30
0.0
 11
-524.59532122547512
 21
-600.29305275277511
 31
0.0
  0
LINE
  5
94B
  8
DATA
  6
CONTINUOUS
 62
     7
 10
-534.54180622547517
 20
-592.67127675277516
 30
0.0
 11
-534.54180622547517
 21
-600.29305275277511
 31
0.0
  0
LINE
  5
94C
  8
DATA
  6
CONTINUOUS
 62
     7
 10
-532.88128822547515
 20
-592.67127675277516
 30
0.0
 11
-532.88128822547515
 21
-600.29305275277511
 31
0.0
  0
LINE
  5
94D
  8
DATA
  6
CONTINUOUS
 62
     7
 10
-532.01781922547514
 20
-592.67127675277516
 30
0.0
 11
-532.01781922547514
 21
-601.67127675277516
 31
0.0
  0
LINE
  5
94E
  8
DATA
  6
CONTINUOUS
 62
     7
 10
-530.50674622547513
 20
-593.51813175277516
 30
0.0
 11
-530.50674622547513
 21
-596.40743775277497
 31
0.0
  0
LINE
  5
94F
  8
DATA
  6
CONTINUOUS
 62
     7
 10
-527.26802422547507
 20
-596.24025375277517
 30
0.0
 11
-527.26802422547507
 21
-594.13253475277531
 31
0.0
  0
LINE
  5
950
  8
DATA
  6
CONTINUOUS
 62
     7
 10
-528.8628512254752
 20
-593.9166607527751
 30
0.0
 11
-528.8628512254752
 21
-596.00891775277512
 31
0.0
  0
ARC
  5
951
  8
DATA
  6
CONTINUOUS
 62
     7
 10
-534.87502222547505
 20
-599.36025675277517
 30
0.0
 40
2.3209680826511998
 50
264.69085622153381
 51
323.9911991542383
  0
LINE
  5
952
  8
DATA
  6
CONTINUOUS
 62
     7
 10
-535.80379522547514
 20
-598.84839075277512
 30
0.0
 11
-535.80379522547514
 21
-600.29303475277516
 31
0.0
  0
LINE
  5
953
  8
DATA
  6
CONTINUOUS
 62
     7
 10
-535.80379522547514
 20
-598.84839075277512
 30
0.0
 11
-537.29826322547513
 21
-598.84839075277512
 31
0.0
  0
LINE
  5
954
  8
DATA
  6
CONTINUOUS
 62
     7
 10
-537.29826322547513
 20
-598.84839075277512
 30
0.0
 11
-537.29826322547513
 21
-600.29303475277516
 31
0.0
  0
ARC
  5
955
  8
DATA
  6
CONTINUOUS
 62
     7
 10
-535.16963722547507
 20
-600.31251075277498
 30
0.0
 40
0.6281359436181599
 50
269.71184879275228
 51
1.7759870056884199
  0
ARC
  5
956
  8
DATA
  6
CONTINUOUS
 62
     7
 10
-535.17596422547513
 20
-600.31251075277498
 30
0.0
 40
0.6281327317136221
 50
178.22401299431701
 51
270.28815120723777
  0
ARC
  5
957
  8
DATA
  6
CONTINUOUS
 62
     7
 10
-535.30452922547499
 20
-599.36025675277517
 30
0.0
 40
2.3209643132519551
 50
216.00880084576011
 51
275.30914377846773
  0
ARC
  5
958
  8
DATA
  6
CONTINUOUS
 62
     7
 10
-536.24936722547511
 20
-600.24215775277526
 30
0.0
 40
1.050120187358607
 50
182.7769954499943
 51
207.35960666714649
  0
CIRCLE
  5
959
  8
DATA
  6
CONTINUOUS
 62
     7
 10
-536.42648722547506
 20
-597.12146175277496
 30
0.0
 40
0.8551620000000639
  0
LINE
  5
95A
  8
DATA
  6
CONTINUOUS
 62
     7
 10
-521.82225922547514
 20
-601.67126775277529
 30
0.0
 11
-526.32225922547514
 21
-601.67126775277529
 31
0.0
  0
LINE
  5
95B
  8
DATA
  6
CONTINUOUS
 62
     7
 10
-521.82225922547514
 20
-601.67126775277529
 30
0.0
 11
-521.82225922547514
 21
-598.84838175277525
 31
0.0
  0
LINE
  5
95C
  8
DATA
  6
CONTINUOUS
 62
     7
 10
-521.82225922547514
 20
-598.84839075277512
 30
0.0
 11
-523.33332322547506
 21
-598.84839075277512
 31
0.0
  0
LINE
  5
95D
  8
DATA
  6
CONTINUOUS
 62
     7
 10
-523.33332322547506
 20
-598.84839075277512
 30
0.0
 11
-523.33332322547506
 21
-600.29303475277516
 31
0.0
  0
LINE
  5
95E
  8
DATA
  6
CONTINUOUS
 62
     7
 10
-532.01781922547514
 20
-601.67126775277529
 30
0.0
 11
-528.8628512254752
 21
-601.67125875277532
 31
0.0
  0
LINE
  5
95F
  8
DATA
  6
CONTINUOUS
 62
     7
 10
-530.5067552254751
 20
-600.82440375277508
 30
0.0
 11
-529.69310122547506
 21
-600.82440375277508
 31
0.0
  0
LINE
  5
960
  8
DATA
  6
CONTINUOUS
 62
     7
 10
-530.50674622547513
 20
-600.82440375277508
 30
0.0
 11
-530.50674622547513
 21
-597.27089775277511
 31
0.0
  0
LINE
  5
961
  8
DATA
  6
CONTINUOUS
 62
     7
 10
-530.5067552254751
 20
-597.27089775277511
 30
0.0
 11
-529.69310122547506
 21
-597.27089775277511
 31
0.0
  0
LINE
  5
962
  8
DATA
  6
CONTINUOUS
 62
     7
 10
-528.8628512254752
 20
-600.42588375277512
 30
0.0
 11
-528.8628512254752
 21
-597.66941775277496
 31
0.0
  0
ARC
  5
963
  8
DATA
  6
CONTINUOUS
 62
     7
 10
-533.93018422547516
 20
-600.24215775277526
 30
0.0
 40
1.0501186930785771
 50
332.64039333285689
 51
357.22300455000669
  0
ARC
  5
964
  8
DATA
  6
CONTINUOUS
 62
     7
 10
-523.96116322547505
 20
-600.31251075277498
 30
0.0
 40
0.6281359436181599
 50
269.71184879275228
 51
1.7759870056884199
  0
ARC
  5
965
  8
DATA
  6
CONTINUOUS
 62
     7
 10
-523.96748122547513
 20
-600.31251075277498
 30
0.0
 40
0.6281327317136221
 50
178.22401299431701
 51
270.28815120724829
  0
LINE
  5
966
  8
DATA
  6
CONTINUOUS
 62
     7
 10
-527.26875322547505
 20
-600.22661475277505
 30
0.0
 11
-527.26875322547505
 21
-597.83547675277532
 31
0.0
  0
LINE
  5
967
  8
DATA
  6
CONTINUOUS
 62
     7
 10
-530.5067552254751
 20
-596.40743775277497
 30
0.0
 11
-529.69310122547506
 21
-596.40743775277497
 31
0.0
  0
ARC
  5
968
  8
DATA
  6
CONTINUOUS
 62
     7
 10
-528.97725922547511
 20
-599.96273475277496
 30
0.0
 40
1.71235027054643
 50
273.8309816091155
 51
351.13514730979881
  0
LINE
  5
969
  8
DATA
  6
CONTINUOUS
 62
     7
 10
-534.54180622547517
 20
-592.67127675277516
 30
0.0
 11
-532.88128822547515
 21
-592.67127675277516
 31
0.0
  0
LINE
  5
96A
  8
DATA
  6
CONTINUOUS
 62
     7
 10
-537.84623722547519
 20
-592.67127675277516
 30
0.0
 11
-535.17280522547514
 21
-592.67127675277516
 31
0.0
  0
LINE
  5
96B
  8
DATA
  6
CONTINUOUS
 62
     7
 10
-526.32225922547514
 20
-592.67127675277516
 30
0.0
 11
-524.59532122547512
 21
-592.67127675277516
 31
0.0
  0
LINE
  5
96C
  8
DATA
  6
CONTINUOUS
 62
     7
 10
-532.01781922547514
 20
-592.67127675277516
 30
0.0
 11
-528.84550811014321
 21
-592.6712840371415
 31
0.0
  0
LINE
  5
96D
  8
DATA
  6
CONTINUOUS
 62
     7
 10
-530.5067552254751
 20
-593.51814075277525
 30
0.0
 11
-529.69310122547506
 21
-593.51814075277525
 31
0.0
  0
ARC
  5
96E
  8
DATA
  6
CONTINUOUS
 62
     7
 10
-528.96018622547513
 20
-594.37719075277528
 30
0.0
 40
1.7097569396204131
 50
8.2269238590143416
 51
86.154126692156012
  0
ARC
  5
96F
  8
DATA
  6
CONTINUOUS
 62
     7
 10
-529.68349330913225
 20
-599.24608458824684
 30
0.0
 40
1.578348408043537
 50
269.65121993761642
 51
282.82648280687238
  0
ARC
  5
970
  8
DATA
  6
CONTINUOUS
 62
     7
 10
-529.50621980075505
 20
-599.91337903287956
 30
0.0
 40
0.8886941133238737
 50
281.2331036226596
 51
306.8620088940645
  0
ARC
  5
971
  8
DATA
  6
CONTINUOUS
 62
     7
 10
-529.14832099825924
 20
-597.69807739346027
 30
0.0
 40
0.2869048033365464
 50
5.7329807106216624
 51
52.358097502424982
  0
ARC
  5
972
  8
DATA
  6
CONTINUOUS
 62
     7
 10
-529.68349330913225
 20
-598.84921691730335
 30
0.0
 40
1.578348408043577
 50
77.173517193127552
 51
90.348780062383625
  0
ARC
  5
973
  8
DATA
  6
CONTINUOUS
 62
     7
 10
-529.50621980075505
 20
-598.18192247267075
 30
0.0
 40
0.8886941133238984
 50
53.137991105935491
 51
78.766896377340274
  0
ARC
  5
974
  8
DATA
  6
CONTINUOUS
 62
     7
 10
-528.13966522547514
 20
-597.89434575277505
 30
0.0
 40
0.8728993475224607
 50
3.867006359811429
 51
88.361634567902428
  0
ARC
  5
975
  8
DATA
  6
CONTINUOUS
 62
     7
 10
-528.14046622547505
 20
-596.14841775277523
 30
0.0
 40
0.8737667459526941
 50
271.68928210464099
 51
356.07828298266082
  0
ARC
  5
976
  8
DATA
  6
CONTINUOUS
 62
     7
 10
-529.14832099825924
 20
-595.9802581120897
 30
0.0
 40
0.2869048033366531
 50
307.6419024975612
 51
354.26701928938058
  0
ARC
  5
977
  8
DATA
  6
CONTINUOUS
 62
     7
 10
-529.68349330913225
 20
-594.82911858824684
 30
0.0
 40
1.578348408043537
 50
269.65121993761642
 51
282.82648280687238
  0
ARC
  5
978
  8
DATA
  6
CONTINUOUS
 62
     7
 10
-529.50621980075505
 20
-595.49641303287967
 30
0.0
 40
0.8886941133238737
 50
281.2331036226596
 51
306.8620088940645
  0
ARC
  5
979
  8
DATA
  6
CONTINUOUS
 62
     7
 10
-529.14832099825924
 20
-593.94532039346029
 30
0.0
 40
0.2869048033365351
 50
5.7329807105990724
 51
52.358097502424982
  0
ARC
  5
97A
  8
DATA
  6
CONTINUOUS
 62
     7
 10
-529.68349330913225
 20
-595.09645991730326
 30
0.0
 40
1.578348408043577
 50
77.173517193127552
 51
90.348780062383625
  0
ARC
  5
97B
  8
DATA
  6
CONTINUOUS
 62
     7
 10
-529.50621980075505
 20
-594.42916547267055
 30
0.0
 40
0.8886941133238984
 50
53.137991105935491
 51
78.766896377340274
  0
ARC
  5
97C
  8
DATA
  6
CONTINUOUS
 62
     7
 10
270.51761933449433
 20
-678.29917052828614
 30
0.0
 40
0.1912698688910721
 50
307.64190249756803
 51
354.26701928940167
  0
LINE
  5
97D
  8
DATA
  6
CONTINUOUS
 62
     7
 10
265.60462051635028
 20
-675.28506695540966
 30
0.0
 11
266.50129651635029
 21
-673.14853895540955
 31
0.0
  0
LINE
  5
97E
  8
DATA
  6
CONTINUOUS
 62
     7
 10
265.60462051635028
 20
-675.28506695540966
 30
0.0
 11
264.71900851635041
 21
-673.14853895540955
 31
0.0
  0
LINE
  5
97F
  8
DATA
  6
CONTINUOUS
 62
     7
 10
272.40166051635032
 20
-679.14853895540966
 30
0.0
 11
272.40166051635032
 21
-673.14853895540955
 31
0.0
  0
LINE
  5
980
  8
DATA
  6
CONTINUOUS
 62
     7
 10
273.55295251635027
 20
-673.14853895540955
 30
0.0
 11
273.55295251635027
 21
-678.22972295540956
 31
0.0
  0
LINE
  5
981
  8
DATA
  6
CONTINUOUS
 62
     7
 10
266.92196251635039
 20
-673.14853895540955
 30
0.0
 11
266.92196251635039
 21
-678.22972295540956
 31
0.0
  0
LINE
  5
982
  8
DATA
  6
CONTINUOUS
 62
     7
 10
268.02897451635027
 20
-673.14853895540955
 30
0.0
 11
268.02897451635027
 21
-678.22972295540956
 31
0.0
  0
LINE
  5
983
  8
DATA
  6
CONTINUOUS
 62
     7
 10
268.60462051635039
 20
-673.14853895540955
 30
0.0
 11
268.60462051635039
 21
-679.14853895540966
 31
0.0
  0
LINE
  5
984
  8
DATA
  6
CONTINUOUS
 62
     7
 10
269.61200251635029
 20
-673.71310895540967
 30
0.0
 11
269.61200251635029
 21
-675.63931295540965
 31
0.0
  0
LINE
  5
985
  8
DATA
  6
CONTINUOUS
 62
     7
 10
271.77115051635042
 20
-675.52785695540956
 30
0.0
 11
271.77115051635042
 21
-674.1227109554095
 31
0.0
  0
LINE
  5
986
  8
DATA
  6
CONTINUOUS
 62
     7
 10
270.7079325163503
 20
-673.97879495540963
 30
0.0
 11
270.7079325163503
 21
-675.37363295540956
 31
0.0
  0
ARC
  5
987
  8
DATA
  6
CONTINUOUS
 62
     7
 10
266.69981851635032
 20
-677.6078589554096
 30
0.0
 40
1.547312055100684
 50
264.69085622153449
 51
323.99119915424308
  0
LINE
  5
988
  8
DATA
  6
CONTINUOUS
 62
     7
 10
266.0806365163503
 20
-677.26661495540964
 30
0.0
 11
266.0806365163503
 21
-678.22971095540959
 31
0.0
  0
LINE
  5
989
  8
DATA
  6
CONTINUOUS
 62
     7
 10
266.0806365163503
 20
-677.26661495540964
 30
0.0
 11
265.08432451635042
 21
-677.26661495540964
 31
0.0
  0
LINE
  5
98A
  8
DATA
  6
CONTINUOUS
 62
     7
 10
265.08432451635042
 20
-677.26661495540964
 30
0.0
 11
265.08432451635042
 21
-678.22971095540959
 31
0.0
  0
ARC
  5
98B
  8
DATA
  6
CONTINUOUS
 62
     7
 10
266.50340851635042
 20
-678.24269495540955
 30
0.0
 40
0.41875729574544
 50
269.71184879275108
 51
1.7759870056885909
  0
ARC
  5
98C
  8
DATA
  6
CONTINUOUS
 62
     7
 10
266.49919051635032
 20
-678.24269495540955
 30
0.0
 40
0.4187551544757385
 50
178.22401299431701
 51
270.28815120725079
  0
ARC
  5
98D
  8
DATA
  6
CONTINUOUS
 62
     7
 10
266.41348051635032
 20
-677.6078589554096
 30
0.0
 40
1.547309542167933
 50
216.00880084575761
 51
275.30914377846449
  0
ARC
  5
98E
  8
DATA
  6
CONTINUOUS
 62
     7
 10
265.78358851635028
 20
-678.19579295540962
 30
0.0
 40
0.7000801249057272
 50
182.7769954499912
 51
207.3596066671434
  0
CIRCLE
  5
98F
  8
DATA
  6
CONTINUOUS
 62
     7
 10
265.66550851635043
 20
-676.11532895540961
 30
0.0
 40
0.5701079999999763
  0
LINE
  5
990
  8
DATA
  6
CONTINUOUS
 62
     7
 10
275.40166051635032
 20
-679.14853295540956
 30
0.0
 11
272.40166051635032
 21
-679.14853295540956
 31
0.0
  0
LINE
  5
991
  8
DATA
  6
CONTINUOUS
 62
     7
 10
275.40166051635032
 20
-679.14853295540956
 30
0.0
 11
275.40166051635032
 21
-677.26660895540965
 31
0.0
  0
LINE
  5
992
  8
DATA
  6
CONTINUOUS
 62
     7
 10
275.40166051635032
 20
-677.26661495540964
 30
0.0
 11
274.3942845163503
 21
-677.26661495540964
 31
0.0
  0
LINE
  5
993
  8
DATA
  6
CONTINUOUS
 62
     7
 10
274.3942845163503
 20
-677.26661495540964
 30
0.0
 11
274.3942845163503
 21
-678.22971095540959
 31
0.0
  0
LINE
  5
994
  8
DATA
  6
CONTINUOUS
 62
     7
 10
268.60462051635039
 20
-679.14853295540956
 30
0.0
 11
270.7079325163503
 21
-679.14852695540958
 31
0.0
  0
LINE
  5
995
  8
DATA
  6
CONTINUOUS
 62
     7
 10
269.61199651635042
 20
-678.58395695540946
 30
0.0
 11
270.15443251635043
 21
-678.58395695540946
 31
0.0
  0
LINE
  5
996
  8
DATA
  6
CONTINUOUS
 62
     7
 10
269.61200251635029
 20
-678.58395695540946
 30
0.0
 11
269.61200251635029
 21
-676.21495295540956
 31
0.0
  0
LINE
  5
997
  8
DATA
  6
CONTINUOUS
 62
     7
 10
269.61199651635042
 20
-676.21495295540956
 30
0.0
 11
270.15443251635043
 21
-676.21495295540956
 31
0.0
  0
LINE
  5
998
  8
DATA
  6
CONTINUOUS
 62
     7
 10
270.7079325163503
 20
-678.3182769554096
 30
0.0
 11
270.7079325163503
 21
-676.48063295540942
 31
0.0
  0
ARC
  5
999
  8
DATA
  6
CONTINUOUS
 62
     7
 10
267.32971051635042
 20
-678.19579295540962
 30
0.0
 40
0.7000791287190272
 50
332.64039333285228
 51
357.22300455000351
  0
ARC
  5
99A
  8
DATA
  6
CONTINUOUS
 62
     7
 10
273.9757245163504
 20
-678.24269495540955
 30
0.0
 40
0.41875729574544
 50
269.71184879275108
 51
1.7759870056885909
  0
ARC
  5
99B
  8
DATA
  6
CONTINUOUS
 62
     7
 10
273.97151251635029
 20
-678.24269495540955
 30
0.0
 40
0.4187551544757101
 50
178.22401299431681
 51
270.28815120725079
  0
LINE
  5
99C
  8
DATA
  6
CONTINUOUS
 62
     7
 10
271.77066451635039
 20
-678.18543095540952
 30
0.0
 11
271.77066451635039
 21
-676.59133895540947
 31
0.0
  0
LINE
  5
99D
  8
DATA
  6
CONTINUOUS
 62
     7
 10
269.61199651635042
 20
-675.63931295540965
 30
0.0
 11
270.15443251635043
 21
-675.63931295540965
 31
0.0
  0
ARC
  5
99E
  8
DATA
  6
CONTINUOUS
 62
     7
 10
270.63166051635028
 20
-678.00951095540961
 30
0.0
 40
1.141566847030838
 50
273.83098160911442
 51
351.13514730980211
  0
LINE
  5
99F
  8
DATA
  6
CONTINUOUS
 62
     7
 10
266.92196251635039
 20
-673.14853895540955
 30
0.0
 11
268.02897451635027
 21
-673.14853895540955
 31
0.0
  0
LINE
  5
9A0
  8
DATA
  6
CONTINUOUS
 62
     7
 10
264.71900851635041
 20
-673.14853895540955
 30
0.0
 11
266.50129651635029
 21
-673.14853895540955
 31
0.0
  0
LINE
  5
9A1
  8
DATA
  6
CONTINUOUS
 62
     7
 10
272.40166051635032
 20
-673.14853895540955
 30
0.0
 11
273.55295251635027
 21
-673.14853895540955
 31
0.0
  0
LINE
  5
9A2
  8
DATA
  6
CONTINUOUS
 62
     7
 10
268.60462051635039
 20
-673.14853895540955
 30
0.0
 11
270.71949459323838
 21
-673.14854381165378
 31
0.0
  0
LINE
  5
9A3
  8
DATA
  6
CONTINUOUS
 62
     7
 10
269.61199651635042
 20
-673.71311495540965
 30
0.0
 11
270.15443251635043
 21
-673.71311495540965
 31
0.0
  0
ARC
  5
9A4
  8
DATA
  6
CONTINUOUS
 62
     7
 10
270.64304251635042
 20
-674.28581495540959
 30
0.0
 40
1.1398379597469039
 50
8.2269238590146152
 51
86.154126692153383
  0
ARC
  5
9A5
  8
DATA
  6
CONTINUOUS
 62
     7
 10
270.16083779391232
 20
-677.53174417905745
 30
0.0
 40
1.0522322720289869
 50
269.65121993761778
 51
282.82648280687329
  0
ARC
  5
9A6
  8
DATA
  6
CONTINUOUS
 62
     7
 10
270.2790201328304
 20
-677.97660714214589
 30
0.0
 40
0.5924627422158806
 50
281.2331036226613
 51
306.86200889406081
  0
ARC
  5
9A7
  8
DATA
  6
CONTINUOUS
 62
     7
 10
270.51761933449433
 20
-676.49973938253311
 30
0.0
 40
0.191269868891063
 50
5.7329807106321073
 51
52.358097502431889
  0
ARC
  5
9A8
  8
DATA
  6
CONTINUOUS
 62
     7
 10
270.16083779391232
 20
-677.26716573176168
 30
0.0
 40
1.0522322720290951
 50
77.1735171931265
 51
90.348780062382076
  0
ARC
  5
9A9
  8
DATA
  6
CONTINUOUS
 62
     7
 10
270.2790201328304
 20
-676.82230276867335
 30
0.0
 40
0.5924627422159512
 50
53.13799110593915
 51
78.766896377340785
  0
ARC
  5
9AA
  8
DATA
  6
CONTINUOUS
 62
     7
 10
271.1900565163503
 20
-676.63058495540952
 30
0.0
 40
0.5819328983482625
 50
3.8670063598154671
 51
88.361634567897553
  0
ARC
  5
9AB
  8
DATA
  6
CONTINUOUS
 62
     7
 10
271.18952251635039
 20
-675.46663295540964
 30
0.0
 40
0.5825111639684648
 50
271.68928210464742
 51
356.0782829826577
  0
ARC
  5
9AC
  8
DATA
  6
CONTINUOUS
 62
     7
 10
270.51761933449433
 20
-675.3545265282861
 30
0.0
 40
0.1912698688910721
 50
307.64190249756803
 51
354.26701928940349
  0
ARC
  5
9AD
  8
DATA
  6
CONTINUOUS
 62
     7
 10
270.16083779391232
 20
-674.58710017905742
 30
0.0
 40
1.0522322720289869
 50
269.65121993761778
 51
282.82648280687329
  0
ARC
  5
9AE
  8
DATA
  6
CONTINUOUS
 62
     7
 10
270.2790201328304
 20
-675.03196314214586
 30
0.0
 40
0.5924627422159922
 50
281.23310362265909
 51
306.86200889406081
  0
ARC
  5
9AF
  8
DATA
  6
CONTINUOUS
 62
     7
 10
270.51761933449433
 20
-673.99790138253309
 30
0.0
 40
0.1912698688910517
 50
5.7329807105982233
 51
52.358097502438639
  0
ARC
  5
9B0
  8
DATA
  6
CONTINUOUS
 62
     7
 10
270.16083779391232
 20
-674.76532773176166
 30
0.0
 40
1.0522322720290951
 50
77.1735171931265
 51
90.348780062382076
  0
ARC
  5
9B1
  8
DATA
  6
CONTINUOUS
 62
     7
 10
270.2790201328304
 20
-674.32046476867322
 30
0.0
 40
0.5924627422159512
 50
53.13799110593915
 51
78.766896377340785
  0
TEXT
  5
9B2
  8
DATA
 62
     7
 10
525.0
 20
-973.21319326605851
 30
0.0
 40
14.111111111111111
  1
2WAYスピーカ(Control 23の10Wオートトランス内蔵モデル)
 41
0.8
 11
525.0
 21
-959.10208215494754
 31
0.0
 73
     3
  0
ENDSEC
  0
EOF
